[D*1(003210)]
[D*2(200230)]
 
1|-------0--------------------------------------------|
2|-------1------------3----------1-----------0^1^0----|
3|-----2----2-------2---2------2---2-------0-------0--|
4-----3----------3------------------------|
5|---0------------------------------------------------|
6----------------------------3------------|
 
Am      D*1
Я еду к тебе
C            E
Это странное место
Туман на болоте
Без цвета и дна
Я твой вечных жених,
Золотая невеста
Лижут мысли, как мухи,
Стекла окна
 
Зима на спине
Я не стар и не молод
Ночь похожа на лифт
В котором умер поэт
Я по уши сыт,
Да разбудил меня голод
Руки чувствуют пульс
Я зеваю на свет
 
Припев:
         Am      D*2          C             E
1-------------------------------------|
2|-------1---------3---------1-------------0------|
3|-------2---------2---------3----0--------1------|
4|-----2---2-----0---0-----2---2---------2---2----|
5|--0--------------------3------------------------|
6--2-----------------------0----------|
 Мама,            разбуди меня вечером
 Мама,            чтоб я ночь не проспал
 Мама,            я уйду как намечено
 Мама,            мама как я устал
 
Гроза по глазам
Напротив морщинами
Скребет по стеклу
Седая рука
Мимо павших идей
Проплывают причинами
В тумане чуть видимо
Ветви века.
 
Растет за окном
Последняя станция
Здесь отпевают верхний этаж
Здравствуй, любовь,
Получи информацию
Да не промахнись
И сотри макияж
 
[припев]
 
[боем] 
   Am  D*2  C  E
Свобооооооооооода 


Текст, аккорды и табулатура для песни "Свобода", исполняет "ДДТ".
Используемые в песне аккорды можно найти в разделе Как брать аккорды. Аккорды для шестиструнной гитары. Другие песни можно найти на нашем сайте, воспользовавшись алфавитным указателем вверху страницы.


 
Ошибка в тексте? Выделите ошибку и нажмите Ctrl+Enter