Играется в две гитары!
Вступление и припев!

1 партия (Желательно добавить немного Drive´а)

2-----1------2-----1------2-----1------2-----1------2-----4-
2-----2------2-----2------2-----2------2-----2------2-----2-
1-----1------1-----1------1-----1------1-----1------1-----3-
------------------------------------------------------------
------------------------------------------------------------
------------------------------------------------------------

----2-----1
----2-----2
----3-----3   3 РАЗА
-----------
-----------
-----------

2-----1------2-----1------2-----1------1
2-----2------2-----2------2-----2------2
1-----1------1-----1------1-----1-------
----------------------------------------
---------------------------------------4
----------------------------------------

2 партия (Закальцовано)

4-44-44-4-44-44-6-66-66-6-66-66
6-66-66-4-44-44-6-66-66-7-77-77
6-66-66-5-55-55-6-66-66-6-66-66
-------------------------------
-------------------------------
-------------------------------


Текст, аккорды и табулатура для песни "Потолок", исполняет "ДДТ".
Используемые в песне аккорды можно найти в разделе Как брать аккорды. Аккорды для шестиструнной гитары. Другие песни можно найти на нашем сайте, воспользовавшись алфавитным указателем вверху страницы.


 
Ошибка в тексте? Выделите ошибку и нажмите Ctrl+Enter