Проигрыш: (так можно играть куплет до слов "Билась за любовь...")



      Em      DF#      G 
1|-----0-------|
2|-------0-|-------3-------|
3|---0-----|---2-----|-----4-5-4-5-4-0-|
4|---------|---------|-----5-3-3-3-3-0-|
5|---------|---------|---5-------------|
6|-0-------|-2-------|-3---------------|


Со слов "Билась за любовь..." и до припева играется по-моему так:
     G         H7        Em
1|-------3---|-----2---|---------0-------|
2|---------0-|-------0-|-----0-------0---|
3|-----0-----|---2-----|---0---0---0---0-|
4----|
5|-2-------------|
6|-2-3-------|---------|-0---------------|

   G         DF#      G 
1|------3------|
2|--------0|-------3-------|
3|-----0---|---2-----|-----4-5-4-5-4-0-|
4|---------|---------|-----5-3-3-3-3-0-|
5|---------|---------|---5-------------|
6|-2-3-----|-2-------|-3---------------|

     G         H7        Em
1|-------3---|-----2---|---------0-------|
2|---------0-|-------0-|-----0-------0---|
3|-----0-----|---2-----|---0---0---0---0-|
4----|
5|-2-------------|
6|--3--------|---------|0----------------|

   G         DF#      Em
1|------3--|-----2---|---------0-------|
2|--------0|-------3-|-------0---------|
3|-----0---|---2-----|-----0-----------|
4|---------|---------|---2-------------|
5|-------------|
6|-2-3-----|-2-------|-0---------------|
     

Куплет играется так:
   Em        DF#      G
1|-----0---|-----2---|-----3---|
2|-------0-|-------3-|-------0-|
3|---0-----|---2-----|---0-----|
4|---------|---------|---------|
5|---------|---------|---------|
6|-0-------|-2-------|-3-------|

   Am        Em        DF#      G          ---|
1|-----0---|-----0---|-----2---|-----3---|     |Это играется до конца припева
2|-------1-|-------0-|-------3-|-------0-|     |
3|---2-----|---0-----|---2-----|---0-----|     |
4|---------|---------|---------|---------|     |
5|---------|---------|---------|---------|     |
6|-0-------|-0-------|-2-------|-3-------|     |
                                            ---|


Em          DF#                 G   
Думали что все, но только началось 
Em    DF#    G
Стали мы дождем 
Em           DF#             G
С болью и тоской в мире прижилось 
Em   DF#    Em
Все твое о Нем 
G            H7             Em       
Билась за любовь рваная весна 
G    DF#        G
Шел дорогой в храм 
G           H7             Em
На столе цветы, на душе война 
G    DF#     Em
Разбираться нам 

Припев:

Em    DF#   G
Вечер 
      Am           Em   DF#  G
Расписался на рассвете 
         Am           Em   DF#  G
То, что мной когда-то было 
      Am       Em  DF# G 
Пожелтело и уплы-ы-ы-ы-ло
В небесах дымит кадило 
Я за все давно в ответе 
Только чистый пряный вете-е-е-ер 
Ты, душа моя 


Думал починить - отрубил с плеча 
Продолжали плыть 
Думал не успеть, ожила свеча 
Наказала быть 
Все, что было мной, это тоже Он 
Сваренный добром 
Пасха началась, колокольный звон 
Дышит медным ртом

Припев. 

Опустил  грехи ветер, да унес 
Отворилась дверь 
Все, что было мной - в запахе берез 
Верь. 
Положила в сад, в поле унесла 
Стали мы луной 
Все, что было мной, на краю села 
Замело стеной

Припев.
	
	
	        
Комментарий автора: Играется 4 раза. Только в конце 4 раза играется вместо аккорда G аккорд Em перебором 6,4,3,2,1 (цифры соответствуют номерам струн)

Текст, аккорды и табулатура для песни "Пасха", исполняет "ДДТ".
Используемые в песне аккорды можно найти в разделе Как брать аккорды. Аккорды для шестиструнной гитары. Другие песни можно найти на нашем сайте, воспользовавшись алфавитным указателем вверху страницы.


 
Ошибка в тексте? Выделите ошибку и нажмите Ctrl+Enter