1 Часть

  Em      C
1------------------------------
2-----0------------------------
3----0--------0----------------
4---2--------2-------5-4-------
5-------2--3-------------------
6--0---------------------------

2 Часть

1------------------------0-----
2-----------------------3--3---
3----0-----------------2----2--
4---0----------0---------------
5--------0-2-3-----------------
6--3----3----------------------

Повтор 1 части до 5 лада 4 струны

1--------------------------0----
2-------------0--0--0-----3--3--
3--------------0--0------2----2-
4---4s9---------9--9------------
5-------------------------------
6-------------------------------


Em   C      G   D
Коронована луной,
Как начало высока,
Как победа - не со мной,
Как надежда - не легка.


За окном стеной мете-ель,
Жизнь по горло занесло,
Сорвало финал с петель,
Да поело все тепло.

Припев

Играй как можешь сыграй, закрой глаза и вернись
Не пропади, но растай, да колее поклонись 
Мое окно отогрей, пусти по полю весной
Не доживи, но созрей и будешь вечно со мной,
И будешь вечно со мной, и будешь вечно...
Со мной... Со мной...

Ищут землю фонари,
К небу тянется свеча.
На снегу следы зари,
Крылья павшего луча.

Что же вьюга наливай,
Выпьем время натощах.
Я спою, ты в такт пролай
О затерянных вещах.

Припев

Осторожно, не спеша,
С белым ветром на груди,
Где у вмерзшей в лед ладьи
Ждет озябшая душа.


Текст, аккорды и табулатура для песни "Метель", исполняет "ДДТ".
Используемые в песне аккорды можно найти в разделе Как брать аккорды. Аккорды для шестиструнной гитары. Другие песни можно найти на нашем сайте, воспользовавшись алфавитным указателем вверху страницы.


 
Ошибка в тексте? Выделите ошибку и нажмите Ctrl+Enter