Вступление/проигрыш (можно использовать аккомпанементом куплета):

    Em                 C                G                D
e||--------0---------|-----------------|-3--------------|--------2h3p2-0-|
H||------0---0---0---|-1----1----0---0-|------0---------|------3---------|
G||----0-------0---0-|----0------------|----0-----------|----2-----------|
D||------------------|-------2/5---4---|----------------|-0--------------|
A||--------------2---|-3---------------|----------0-2-3-|----------------|
E||-0----------------|-----------------|-3------3-------|----------------|

    Em                 C                G                D
e||--------0---------|-----------------|--------0-------|--------2h3p2-0-||
H||------0---0---0---|-1----1----0---0-|------0---0---0-|------3---------||
G||----0-------0---0-|----0------------|----0-------0---|----2-----------||
D||------------------|-------2/5---4---|/9--------------|-0--------------||
A||--------------2---|-3---------------|----------------|----------------||
E||-0----------------|-----------------|----------------|----------------||

Em      C        G  D
   Коронована луной,
   Как начало высока,
   Как победа - не со мной,
   Как надежда - не легка.

Em      C/9           G D
   За окном стеной мете-ель,
   Жизнь по горло занесло,
   Сорвало финал с петель,
   Да поело все тепло.

	Em            C         G              D      Em 
	   Играй как можешь сыграй, закрой глаза и вернись
	   Не пропади, но растай, да колее поклонись 
	   Мое окно отогрей, пусти по полю весной
	   Не доживи, но созрей и будешь вечно со мной,
	   И будешь вечно со мной, и будешь вечно...
	   Со мной... Со мной...
 
Ищут землю фонари,
К небу тянется свеча.
На снегу следы зари,
Крылья павшего луча.

Что же вьюга наливай,
Выпьем время натощак.
Я спою, ты в такт пролай
О затерянных вещах.

	Припев

E      C            G D
  Осторожно, не спеша,
  С белым ветром на груди,
  Где у вмерзшей в лед ладьи
  Ждет озябшая душа.

	Припев

	
	
	        
Комментарий автора: В стихотворении значится еще одно четверостишье, после четвертого куплета: О надежном, о простом Главном смысле бытия Мы доспорим, а потом Не прощаясь выйду я...

Текст, аккорды и табулатура для песни "Метель", исполняет "ДДТ".
Используемые в песне аккорды можно найти в разделе Как брать аккорды. Аккорды для шестиструнной гитары. Другие песни можно найти на нашем сайте, воспользовавшись алфавитным указателем вверху страницы.


 
Ошибка в тексте? Выделите ошибку и нажмите Ctrl+Enter