Вступление №1
|----------13----------------------------------|   3 times
|--8h10-11----11-10h11-------------------------|
-----------------------------------|
-----------------------------------|
-----------------------------------|
-----------------------------------|

|----------13----------------------------------|   
|--8h10-11-------------------------------------|
-----------------------------------|
-----------------------------------|
-----------------------------------|
-----------------------------------|

Вступление №2
|--10-10-10--------------------------------10----10~-|
11-11-11--------------------11----11-----|
---------10-10-10-12-12-12---------------|
------------------10-10-10---------------|
------------------10-10-10---------------|
------------------10-10-10---------------|


Куплет
1 часть
--------------|
--------------|
|---10-8-7----------------|
|----------10-------------|
--------------|
--------------|


--------------|
--------------|
|---10-8-7-10-------------|
--------------|
--------------|
--------------|

Вторая часть
ПРосто послушайте песню внимательно чтобы понять как это играть все очень легко и ритм 
тоже
-----------------------------------|
-----------------------------------|
|--10-10-10------12-12-12----------------------|
|--8--8--8-------10-10-10----------------------|
|--8--8--8-------10-10-10----------------------|
|--8--8--8-------10-10-10----------------------|

Припев

---------------------------|
---------------------------|
|--10--------12------------------------|
|--8---------10-------12---------------|
|--8---------10-------12---------------|
|--8---------10-------12---------------|

Припев разбавляется второгй гитарой, которая играет следующее
-----------------------------------|
-----------------------------------|
|----10-8-7----------------------8-7-----------|
-----------------------------------|
-----------------------------------|
-----------------------------------|


Соло 

-----------------------------------------------------|
---------------------3--3-6-4-3---3------------------|
|-0-2-3--3-2-0-----0--0-2-3--3-5------------5---3-3h5-3p2p0------|
---3-0------------------------------------------5p3p5|
-----------------------------------------------------|
-----------------------------------------------------|

--------------------------------10--10-13-11-10----10|
|-8-10-11-11~--11-10-8------8-8-10-11-11-13-----------------13---|
-----------10-7--------------------------------------|
-----------------------------------------------------|
-----------------------------------------------------|
-----------------------------------------------------|

-----------------------------------|
|-11-11h13-11p10p8-12p10h12--------------------|
-----------------------------------|
-----------------------------------|
-----------------------------------|
-----------------------------------|

Outro

----------------------------|	2 times
----------------------------|
|--10--------12-------10--8-7--12-------|
|--8---------10-------8--------10-------|
|--8---------10-------8--------10-------|
|--8---------10-------8--------10-------|


Текст, аккорды и табулатура для песни "Любовь", исполняет "ДДТ".
Используемые в песне аккорды можно найти в разделе Как брать аккорды. Аккорды для шестиструнной гитары. Другие песни можно найти на нашем сайте, воспользовавшись алфавитным указателем вверху страницы.


 
Ошибка в тексте? Выделите ошибку и нажмите Ctrl+Enter