^^^^-вибратто
/-глиссандо вверх
-глиссандо вниз
Вступление:
-0--7--0--10/9-10/9--0--7--0--6/5-6/5---0--7--0--10/9-10/9--0--7--0--6/5-6/5--
------------------------------------------------------------------------------
------------------------------------------------------------------------------
------------------------------------------------------------------------------
------------------------------------------------------------------------------
-0--0--3--5----------0--0--3--5---------0--0--3--5----------0--0--3--5--------
-0--7--0--10/9-10/9--0--7--0--6/5-6/5----0--7--0--10/9-10/9-  E GA
------------------------------------------------------------
------------------------------------------------------------
------------------------------------------------------------
------------------------------------------------------------
-0--0--3--5----------0--0--3--5---------0--0--3--5----------
E                          G    A        
Цветы на глазах, параллельные речи
E                          G    A
Флэйты, sex, drugs да rock^n^roll...

прехорус: играется дергая попеременно то бас то 1 и2 струны.
          G              A
Ты как обычно лежишь в углу
   G             A
И держишься за меня...
Фразировка:
A       C D    E     C  D
-------------------------------------------------------------------------------
-3/5^^^^^53----------3---3/5---5-5^^^^^53----------3--3/5--------------------
-------------41----------------------------41--------------------------------
-----------------2--2---2-----------------------2--2--2------------------------
-------------------------------------------------------------------------------
-------------------------------------------------------------------------------

куплет
прехорус
припев:
          C(5)            H7(H5)       G(5)     A(5)
Когда закончатся черные белые танцы...
Фразировка
куплет
прехорус
припев
небольшая клавишная импровизация
Припев(два голоса каноном).

Цветы на глазах параллельные речи,
Флэйты, sex, drugs да rock^n^roll.
На плите кайф, потолки да свечи 
Заморили мужской да женский пол.

Прием на приход, поворот налево,
Коридор, тараканы, туалет говно,
Соседа несет он блюет он весь белый,
Выход есть как всегда в окно.

Ты как обычно лежишь в углу
И держишься за меня 
Прекращай я скоро уйду
Я, Я

Ушла сестра перепутала дозу
Юность юностью мерили зря
Я вырвал иглу я вставил ей розу
На сердце пусто ни рубля.

Ломает трясет не попасть в ботинок
Линейка машина магнитофон 
Понес на сдачу Некрасовский рынок
Оцепили менты сегодня шмон.

Ты как обычно сидишь в углу
И пялишься на меня
Прекращай я скоро уйду
Я,Я

Когда закончатся черные белые танцы...

Телефонная книжка адрес быстро
Кому отсос кидают нет
Уйду на волю бензин канистра 
Дайте спички да будет свет

Будь прокляты все параллельные речи
Флэйты, sex, drugs да rock^n^roll.
Братва проставьте зажгите свечи
Меня больше нет золотой укол

Ты как обычно стоишь в углу 
и МОЛИШЬСЯ ЗА МЕНЯ 
А я угол на грязном полу
А я белая простыня
Я испарившаяся моча
Я язык запавший в гортань
Я брезгливые руки врача 
Я понятые ранняя срань
Я невипитая роса
Я трава под лунным дождем
Я растущие в небо леса
Я мир куда мы уйдем.

Когда закончатся черные белые танцы.


Текст, аккорды и табулатура для песни "Черно-белые танцы", исполняет "ДДТ".
Используемые в песне аккорды можно найти в разделе Как брать аккорды. Аккорды для шестиструнной гитары. Другие песни можно найти на нашем сайте, воспользовавшись алфавитным указателем вверху страницы.


 
Ошибка в тексте? Выделите ошибку и нажмите Ctrl+Enter