Am          G C       F
Нас сомненья грызут.   Этой гадости всякий не рад.
       Am    G            C       F
И тоскливая тяжесть в груди разбивает любовь.
                       E7     Am         G         C
А пока мы сидим и страдаем, скулим у захлопнутых врат,
       F                  E7          Am              E
Нас колотит судьба чем попало, да в глаз или в бровь.

Вот хитрейшие просто давно положили на все.
Налепив быстро мягкий мирок на привычных их телу костях,
Лишь смеются над нами, погрязшими в глупых страстях.
Им давно наплевать на любое, твое и мое.

	Am     G       C         F
	Я получил эту роль. Мне выпал счастливый билет.
	Я получил эту роль. Мне выпал счастливый билет.

Вопрошаем отцов, но не легче от стройных речей.
Не собрать и частичный ответ из подержаных фраз.
Их тяжелая юность прошла в далеке от вещей,
Тех, которые так переполнили доверху нас.

И когда нам так хочется громко и долго кричать,
Вся огромная наша родня умоляет молчать.
И частенько, не веря уже в одряхлевших богов,
Сыновья пропивают награды примерных отцов.

В суете наступает совсем одинокая ночь.
Лезут мысли о третьем конце, и уже не до сна.
Но на следующий вечер приводим мы ту, что не прочь.
И тихонько сползая с постели отступает война. Оо!

Припев

Эфемерное счастье наполнило медом эфир.
Славим радость большого труда, непонятного смыслом своим.
Славим радость побед, по малейшему поводу - пир.
И уж лучше не думать, что завтра настанет за ним.

Безразличные грезы, прощаясь одна за другой,
Улетают, навечно покинув еще одного.
Он лежит и гниет, что-то желтое льет изо рта.
Это просто неизрасходованная слюна.

Сладость тело питала, но скоро закончился срок.
Он подъехал незримо к черте, где все рвется за миг.
И в застывших глазах, обращенных к началу дорог,
Затвердел и остался навек неродившийся крик.

Припев  

Куплет:
                                   Am                        F7
|--0--0---0---0---0--0---0--0|--0---0---0---0---0---0---0---0| 
|--1--1---1---1---1--1---1--1|--1---1---1---1---1---1---1---1| 
|--2--2---2---2---0--0---0--0|--2---2---2---2---2---2---2---2| 
|----------------------------|3-------3-------3-------3------| 
|0------0---0---2------3-----|------------3---------------3--| 
|----------------------------|-------------------------------| 

    Am      G*           C                      F7
|--0---0|--3---3|--0---0---0---0|--0---0---0---0---0---0---0---0| 
|--1---1|--3---3|--1---1---1---1|--1---1---1---1---1---1---1---1| 
|--2---2|--0---0|--0---0---0---0|--2---2---2---2---2---2---2---2| 
|-------|-------|---------------|3-------3-------3-------3------| 
|0------|3------|3-------3------|------------3---------------3--| 
|-------|-------|---------------|-------------------------------| 

       F7               E           Am      G           C
|--0---0---0---0|--0---0---0---0|--0---0|--3---3|--0---0---0---0| 
|--1---1---1---1|--0---0---0---0|--1---1|--3---3|--1---1---1---1| 
|--2---2---2---2|--1---1---1---1|--2---2|--0---0|--0---0---0---0| 
|3-------3------|---------------|-------|-------|---------------| 
|------------3--|--------2------|0------|-------|3-------3------| 
|---------------|0--------------|-------|3------|---------------| 

        F7              E                Am            E*            
|--0---0---0---0|--0---0---0---0|--0---0---0---0|--------0------| 
|--1---1---1---1|--0---0---0---0|--1---1---1---1|--------0------| 
|--2---2---2---2|--1---1---1---1|--2---2---2---2|--------1------| 
|3-------3------|---------------|---------------|---------------| 
|------------3--|--------2------|0-------0------|---------------| 
|---------------|0--------------|---------------|0-------0------| 

 Припев:

        Am          G       C                  F7
|--0---0---0---0|--3---3|--0---0|--0---0---0---0---0---0---0---0| 
|--1---1---1---1|--3---3|--1---1|--1---1---1---1---1---1---1---1| 
|--2---2---2---2|--0---0|--0---0|--2---2---2---2---2---2---2---2| 
|---------------|-------|-------|3-------3-------3-------3------| 
|0-------0------|-------|3------|------------3---------------3--| 
|---------------|3------|-------|-------------------------------|


Текст, аккорды и табулатура для песни "Я получил эту роль", исполняет "ДДТ".
Используемые в песне аккорды можно найти в разделе Как брать аккорды. Аккорды для шестиструнной гитары. Другие песни можно найти на нашем сайте, воспользовавшись алфавитным указателем вверху страницы.


 
Ошибка в тексте? Выделите ошибку и нажмите Ctrl+Enter