******************************
                      When The World Ends
                ******************************
***************************
Song:When the World Ends
Artist:Dave Matthews Band
submitter:profchaos13
***************************
This is a tricky song but if practiced its easy to
check on to.

Intro-Verse  Gtr.1 Acoustic
E------------------------------------------------
B------------------------8------7--------5-------
G------7-------6---------7------x--------x-------
D----0-4-------2------9------7--7--------5-------
A------------4------7------5-------------3-------
E--7-------5-------------------------------------


Gtr.1 Chorus
E------------------------------------------------
B------------------------------------------------
G--5--5--5--5--5--5--5--5--5--5--5--5--5--5--5--5
D--3--3--3--3--3--3--3--3--3--3--3--3--3--3--3--3
A--------------4--4--4--4--x--x--x--x--5--5--5--5
E--------------------------4--4--4--4------------

Gtr.1 Chorus con't.
E------------------------------------------------
B------------------------------------------------
G--5--5--5--5--5--5--5--5--5--5--5--5------------
D--3--3--3--3--3--3--3--3--3--3--3--3------------etc.
A--------------4--4--4--4--5--5--5--5------------
E------------------------------------------------

Gtr.2 Elec. Chorus
E------------------------------------------------
B--6-----6------6-----6------6-----6------6-----6
G-----5------------5------------5------------5---
D------------------------------------------------
A------------------------------------------------
E------------------------------------------------

Gtr.1 Bridge
E--2--------------------------
B--3------(2)---0----2--------
G--2-------2----0----2--------
D--0-------0----0----2--------rep.4x and then...
A----------x----x----0--------
E----------2----3-------------

 and then...
E--2-----------------0--------2--------2----------------
B--3------(2)---0----0--------3--------3--------5-------
G--2-------2----0----0--------2--------2--------x-------
D--0-------0----0----2--------0--------0--------5-------
A----------x----x----2--------------------------3-------
E----------2----3----0----------------------------------

Well thats it! Its a great and fun song to learn so have fun!


Текст, аккорды и табулатура для песни "When The World Ends", исполняет "Dave Matthews Band".
Используемые в песне аккорды можно найти в разделе Как брать аккорды. Аккорды для шестиструнной гитары. Другие песни можно найти на нашем сайте, воспользовавшись алфавитным указателем вверху страницы.


 
Ошибка в тексте? Выделите ошибку и нажмите Ctrl+Enter