Author/Artist: Dave Matthews Band
***le: What You Are
Album: Everyday
Transcribed by: Adam Strachn
Email: [email protected]

This has a hard rhythm, so practice.

Intro – 
Play 4 x                     then play this   
-----------------------------|-----------------------------|
-----------------------------|-----------------------------|
------6---4------------------|--7~~-------6--4-------------|
-4------------0---6---0---4--|--7~~--------------0---6--4--|
------4---2------------------|--5~~-------4--2-------------|
-2------------0---4---0---2--|-------------------0---4--2--|
                                                                              

Verse – Repeat the first Ѕ until you get to the fill
----------------------  ----------------------------|
----------------------  ----------------------------|
----------------------  --7~~------6--4-------------|
-4--4--4-x-x-4--4--4--  --7~~-------------0---6--4--|
----------------------  --5~~------4--2-------------|
-2--2--2-x-x-2--2--2--  ------------------0---4--2--|
     First Ѕ                 Fill                                                        

Chorus – 
“What you’ve become”    “Are you and I so alike?”
-------------------     -------------------------|
-------------------     -------------------------|
------------7--7---     --5--7--5--4-------------|
-7--7--7----7--7---     ---------------0---6--7--|
------------5--5---     --3--5--3--2-------------|
-5--5--5-----------     ---------------0---4--5--|

Then play the intro

Then the chorus                                                                              

Bridge – “What you are . . .”
---------------------------|
---------------------------|
---------------------------|
-4-----6--6-6-6--6/7--4~~--|
---------------------------|
-2-----4--4-4-4--4/5--2~~--|


============


Dave Mattews Band 
What you are 
Everyday, 2001 
tabbed by Scott Weber...[email protected]  


with distortion 
E--------------------------------------------------------------------------------- 
B--------------------------------------------------------------------------------- 
G--------------------------------------------------------------------------------- 
D---11-9----------------11-9-----------------11-9-----------------11-9------------ 
A--9-----12--11-12-----9-----12--11-12-----9------12--11-12-----9------12--11-12-- 
E-----------------12------------------12-------------------12-------------------12  

E-------------------------------------------------------------------- 
B-------------------------------------------------------------------- 
G-------------------------------------------------------------------- 
D--12------11---10---------------11-9----------------11-9------------ 
A-------------------12--11------9-----12--11-12-----9-----12--11-12-- 
E----------------------------------------------12------------------12 

   

  but i do... 
E---------------------------------- 
B---------------------------------- 
G---------------------------------- 
D-------12------11---10------------ 
A------------------------12--11---- 
E---------------------------------- 

 than i have... 
E---------------------------------- 
B---------------------------------- 
G---------------------------------- 
D-------12------11---10------------ 
A------------------------12--11---- 
E---------------------------------- 

             what you've become 
E-------------------------------- 
B--------------------------------- 
G----------------------------------- 
D--7--7-7--9--10--10-10--9--9-9--12-------10--10-10--9 
A--7--7-7--9--10--10-10--9--9-9--12-------10--10-10--9 
E--5--5-5--7--8---8--8---7--7-7--10-------8---8--8---7 


there,...thats most of what u need to play this song...if u  
have any questions email me at [email protected] 
====


Текст, аккорды и табулатура для песни "What You Are", исполняет "Dave Matthews Band".
Используемые в песне аккорды можно найти в разделе Как брать аккорды. Аккорды для шестиструнной гитары. Другие песни можно найти на нашем сайте, воспользовавшись алфавитным указателем вверху страницы.


 
Ошибка в тексте? Выделите ошибку и нажмите Ctrl+Enter