Dave Matthews Band, What Would You Say.
 Tabbed by Leandro Koren, [email protected]
  
Dave Matthews Band
What Would You Say(Live Version)
Under The Table And Dreaming


Intro & Verse & Chorus:

   G    A              G               A
E|------------------------------------------|
B|---------0---4/5--------------------------|
G|------------------------4---6b--4---------|
D|------7--------------5---------------7--5-|
A|------------------------------------------|
e|-3/5--------------------------------------|

Lyrics:

Up and down the puppies' hair 
fleas and ticks jump everywhere
'cause of original sin
down the hill fell jack and jill
and you came tumbling after
'cause of original sin

Pre-Chorus:
F     G            
rip away the tears
 A                 G
drink a hope to happy years
  F      E
and you may find
   F            G
a lifetime's passed you by

Chorus:

what would you say
don't drop the big one
If you a monkey on a string
don't cut my lifeline
If you a doggie on a chain
don't bite the mailman
what would you say

Verse:

I was there when the bear
ate his head, thought it was a candy
everyone goes in the end
knock knock on the door
who's it for, there's nobody in here
look in the mirror my friend

Pre-Chorus:

I don't understand at best
and cannot speak for all the rest
the morning rise a lifetime's passed me by

Chorus:

what would you say
If you a doggie on a chain
If you a monkey on a string
what would you say
don't drop the big one
If you a monkey on a string
don't cut my lifeline
If you a doggie on a chain
don't bite the mailman
what would you say

every dog has It's day every day has it's way
of being forgotten
mom it's my birthday
what would you say
what would you say
what would you say

Break 2:22 :

       Bb A       A Bb B
E|-----------------------|
B|-----------------------|
G|-----7--6-6-6---2--3-4-|
D|-----8--7-7-7---2--3-4-|
A|-0--------------0--1-2-|
e|-----------------------| X 2

Tim's Guitar Solo:

E|-12-12-15---12-12-15-15---12-12-15-15---12-12-15-15--12---------|
B|----------------------------------------------------------15-15-|
G|----------------------------------------------------------------|
D|----------------------------------------------------------------|
A|----------------------------------------------------------------|
e|----------------------------------------------------------------|

E|------------12-12-15-15-15--15-12----------11/12---12-----------|
B|-12-------------------------------15-12-15------------15--------|
G|----14-12-------------------------------------------------------|
D|----------------------------------------------------------------|
A|----------------------------------------------------------------|
e|----------------------------------------------------------------|

E|-------------------------------15-12-15-12-------15-15----------|
B|-------12-15-12-------12-15-12-------------15-12-15-15-12-------|
G|-14-15----------15-14-------------------------------------------|
D|----------------------------------------------------------------|
A|----------------------------------------------------------------|
e|----------------------------------------------------------------|

E|-------------|
B|-15-12-15-15-|
G|-14-12-14-14-|
D|-------------|
A|-------------|
e|-------------|.............

I was there when the bear
ate his head, thought it was a candy
everyone goes in the end
knock knock on the door
who's it for, there's nobody in here
look in the mirror my friend

Pre-Chorus:

I don't understand at best
and cannot speak for all the rest
the morning rise a lifetime's passed me by

What would you say. 
:: Ultimate Guitar Archive :: 
http://www.ultimate-guitar.com 





Текст, аккорды и табулатура для песни "What Would You Say", исполняет "Dave Matthews Band".
Используемые в песне аккорды можно найти в разделе Как брать аккорды. Аккорды для шестиструнной гитары. Другие песни можно найти на нашем сайте, воспользовавшись алфавитным указателем вверху страницы.


 
Ошибка в тексте? Выделите ошибку и нажмите Ctrl+Enter