Tripping Billies by Dave Matthews band
               Tabbed By Michael Cooper

                        Inrro
e-----------------------------------------------------|
b-----------------------------------------------------|
g--2----4----2----4----7----6----2----4----2--4--6--7-|
d--0----0----0----0----0----0----0----0----0--0--0--0-|   and so on
a--x----x----x----x----x----x----x----x----x--x--x--x-|
E--2----3----2----3----7----5----2----3----2--3--5--7-|

                 verse - lead
e--------------------------------------------------------------|   this part is
b--2--0--0----------------------------2--0--0------------------|  same for lead and
g--2--2--0-------7--------------------2--2--0-------7---  2--4-| rythm
d--2--2--0-------7--------------9--9--2--2--0-------7---  0--0-|
a--0--0--0--2/5--5--------------9--9--0--0--0--2/5--5---  x--x-|
E-------------------8--8--7--7--7--7--------------------  2--3-|

                 verse - rythm
  A  A  A  D  D  D   G  G  G  D  D  D  A  A  A  D  D  D    ^

                 Bridge
e------                   --------------|
b------                   --------------|
g--7--6  or D  A          2--4--6--7--6-|
d--0--0                   0--0--0--0--0-|
a--x--x                   x--x--x--x--x-|
E--7--5                   2--3--5--7--5-|

 thats it, and if there are any questions or comments cpntact me
at [email protected]


Текст, аккорды и табулатура для песни "Tripping Billies", исполняет "Dave Matthews Band".
Используемые в песне аккорды можно найти в разделе Как брать аккорды. Аккорды для шестиструнной гитары. Другие песни можно найти на нашем сайте, воспользовавшись алфавитным указателем вверху страницы.


 
Ошибка в тексте? Выделите ошибку и нажмите Ctrl+Enter