-=-=-=-=-=-=-=-=-=-=-=-=-=-=-=-=-=-=-=-=-=-=
Dave Matthews Band
The Stone
David J. Matthews
Before This Crowded Streets
Tabbed by Leandro Koren
[email protected]
-=-=-=-=-=-=-=-=-=-=-=-=-=-=-=-=-=-=-=-=-=-=

Intro: Strings Quartet

Intro[Guitar]:

E|-|----------------------------------------------|-|
B|-|----------------------------------------------|-|
G|-|-----2-------------------2--------------------|-|
D|-|--0----3-5-5-2-3-2----0------3-5-5-2-3-2---0--|-|
A|-|--------------------5--------------------5----|-|
e|-|----------------------------------------------|-|

Verse:
           Dm      Bb   C
I've this cree    ping
                 Dsus2       G
Suspicious that things here are not
          C
As they seem
  Dm     Bb
Reassure me
         Dm          G        C
Why do I feel as if I'm too deep
Now, I've been playing
For some way to show them
I'm not what they see
Yes I have done wrong
But what I did I though
Needed be done
I swear
Unholy day
If I leave now I might get away
This weight on me
As heavy as stone and blue as I go

Chorus:

       F5         Am5          Dm5          C5
E|-|-----------------------------------------------------|-|
B|-|-----------------------------------------------------|-|
G|-|----5-5-5-5-5---5-5-5-5-5----5-5-5-5-5----5-5-5-5-5--|-|
D|-|--3-3-3-3-3-3-2-2-2-2-2-2----X-X-X-X-X----X-X-X-X-X--|-|
A|-|---------------------------5-5-5-5-5-5--3-3-3-3-3-3--|-|
e|-|-----------------------------------------------------|-|

            F
I was just wondering if
 Am          Dm   C
You'd come along
               F            Am
To hold up my head when my head
         Dm     C
Won't hold on
             F           Am
I'll do the same if the same's
         Dm
What you want       
If not I'll go

Verse:

I will go alone
I'm a long way
From that fool's mistake and
Now forever pay
I will run and I'll be ok

Chorus:

I was just wondering if
You'd come along
To hold up my head when my head
Won't hold on
I'll do the same if the same's
What you want
If not I'll go
I will go alone
I need so
I was just wondering if
You'd come along
To hold up my head when my head
Won't hold on
I'll do the same if the same's
What you want
If not I'll go
I will go alone
To stay in your arms, see you smile,
Hold you close
And it weights on me
As heavy as stone and
A bone chilling cold
I was just wondering if
You'd come along
Tell me you will

Strings Quartet Solo.


Текст, аккорды и табулатура для песни "The Stone", исполняет "Dave Matthews Band".
Используемые в песне аккорды можно найти в разделе Как брать аккорды. Аккорды для шестиструнной гитары. Другие песни можно найти на нашем сайте, воспользовавшись алфавитным указателем вверху страницы.


 
Ошибка в тексте? Выделите ошибку и нажмите Ctrl+Enter