Dave Matthews Band, The Space Between.
 Tabbed by Leandro Koren, [email protected]
  
Dave Matthews Band
The Space Between(Live At MTV Movies Awards 2001)
Everyday

...a group we like to call Dave Matthews Band.

Intro Guitar & Riff 1:

    G#/D#  D/F#
E|------------|
B|------------|
G|------------|
D|--6-6-6--0--|
A|--7-7-7--0--|
e|--4-4-4--2--|

Riff 2:
  G#/D#  D/F#
E|----------|
B|----------|
G|----------|
D|--6----0--|
A|--7----0--|
e|--4----2--|

Lyrics:
                             Riff 1
You cannot quit me so quickly
                             Riff 1
There's no hope in you for me
                              Riff 1
No corner you could squeeze me
                                    Riff 2
But I got all the time for you, love

 A                A/G#
The Space Between 
               A/F#
The tears we cry
           A/G#             A
Is the laughter keeps us coming back for more
 A                A/G#
The Space Between
               A/F#
The wicked lies we tell
           A/G#           A
And hope to keep safe from the pain

Sax Jam:

E|-----------|
B|-----------|
G|-----------|
D|-----------|
A|-5h7--5h7--|
e|-----------|

            Riff 1
But will I hold you again?
          (Sax Jam)                    Riff 1
These fickle, fuddled words confuse me
              (Sax Jam)   Riff 1
Like 'Will it rain today?'
           (Sax Jam)                  Riff 1
Waste the hours with talking, talking
           (Sax Jam)              Riff 2
These twisted games we're playing

 A                  A/G#
We're strange allies
                  A/F#
With warring hearts
         A/G#              A
What wild-eyed beast you be
 A               A/G#
The Space Between
                     A/F#
The wicked lies we tell
         A/G#              A               (Sax Jam)
And hope to keep safe from the pain
                   
                      Riff 1 (Sax Jam)
Will I hold you again?
Will I hold...        Riff 2

B5             A5
Look at us spinning out in
       G#/D#                G5
The madness of a roller coaster
B5                            A5
You know you went off like a devil
       G#/D#                    G5
In a church in the middle of a crowded room
B5                    A5
All we can do, my love
       G5                       F5
Is hope we don't take this ship down

Chorus:

The Space Between
Where you're smiling high
Is where you'll find me if I get to go
The Space Between
The bullets in our firefight
Is where I'll be hiding, waiting for you
The rain that falls
Splash in your heart
Ran like sadness down the window into...
The Space Between
Our wicked lies
Is where we hope to keep safe from pain

Take my hand
'Cause we're walking out of here
Oh, right out of here
Love is all we need here

The Space Between
What's wrong and right
Is where you'll find me hiding, waiting for you
The Space Between
Your heart and mine
Is the space we'll fill with time
The Space Between...

Sax Solo.

(In the live version there is a piano)
This is the piano tab(In the studio version the guitar did this)

Chorus:

The space between.....

 | A                 |A/G#                  |A/F#                |  A/G#                 |
E|-------------------|----------------------|--------------------|-----------------------|
B|-2-----2-----2-----|--2-----2-------2-----|-2-----2------2-----|--2-----2-------2------|
G|---2-----2-----2---|-----2-----2------2---|---2-----2------2---|----2------2------2----|
D|----2------2-----2-|------2------2------2-|-----2-----2------2-|------2------2-------2-|
A|-0-----0-----0-----|----------------------|--------------------|-----------------------|
e|-------------------|--4-----4-------4-----|-2-----2------2-----|--4-----4-------4------|

And then start with A again.

Chords Used:

    A  |A/G# |A/F# | B5  | A5  | G5  | F5  |
E|--0--|--0--|--0--|--X--|--X--|--X--|--X--|
B|--2--|--2--|--2--|--X--|--X--|--X--|--X--|
G|--2--|--2--|--2--|--X--|--X--|--X--|--X--|
D|--2--|--2--|--2--|--9--|--7--|--5--|--3--|
A|--0--|--X--|--X--|--9--|--7--|--5--|--3--|
e|--X--|--4--|--2--|--7--|--5--|--3--|--1--| 
:: Ultimate Guitar Archive :: 
http://www.ultimate-guitar.com 





Текст, аккорды и табулатура для песни "The Space Between", исполняет "Dave Matthews Band".
Используемые в песне аккорды можно найти в разделе Как брать аккорды. Аккорды для шестиструнной гитары. Другие песни можно найти на нашем сайте, воспользовавшись алфавитным указателем вверху страницы.


 
Ошибка в тексте? Выделите ошибку и нажмите Ctrl+Enter