Dave Matthews -stay or leave
-------------------------------------------------------------------------------
Tabbed by:brett5
good new some devil song!!!

Tuning:eadgbe-standard
	*intro:strum each note 3 times.....up,down,up(maybe different..)
e|---------------------------------------------------------------------------|
B|---------------------------------------------------------------------------|
G|---------------------------2-----------------------------------------------|
D|--------------7----5---4-------2-------------------------------------------|
A|---2-----5--------------------------4--------------------------------------|
E|---------------------------------------------------------------------------|

 	*chorus: (stay or leave i want you not to go..)
  Em      G      D      A    
e|---------3------2----------------------------------------------------------|
B|---------3------3------2---------------------------------------------------|
G|----------------2------2---------------------------------------------------|
D|--2--------------------2---------------------------------------------------|
A|--2------2-----------------------------------------------------------------|
E|---------3-----------------------------------------------------------------|

	*verse:(what do i do with the rest of the days...)
e|--------4------3-----2-----------------------------------------------------|
B|--------5------3-----3------2----------------------------------------------|
G|--------4------4-----2------2----------------------------------------------|
D|--------6------5------------2----------------------------------------------|
A|---------------------------------------------------------------------------|
E|---------------------------------------------------------------------------|
	*verse:(what day is this, besides the day that you....)
e|---------------3-------------------4---------------------------------------|
B|---------------3------2------------5---------------------------------------|
G|----------------------2------------4---------------------------------------|
D|--------2-------------2------------6---------------------------------------|
A|--------2------2-----------------------------------------------------------|
E|---------------3-----------------------------------------------------------|
	*verse:(remeber we you use to ........you and me)
e|--------3------------------------------------2-----------------------------|
B|--------3------------------------------------3------2----------------------|
G|--------4---------------7--------6-----------2------2----------------------|
D|--------5-------2-------7--------7------------------2----------------------|
A|--------5-------2-------5--------4-----------------------------------------|
E|--------3------------------------------------------------------------------|


Текст, аккорды и табулатура для песни "Stay Or Leave", исполняет "Dave Matthews Band".
Используемые в песне аккорды можно найти в разделе Как брать аккорды. Аккорды для шестиструнной гитары. Другие песни можно найти на нашем сайте, воспользовавшись алфавитным указателем вверху страницы.


 
Ошибка в тексте? Выделите ошибку и нажмите Ctrl+Enter