=-=-=-=-=-=-=-=-=-=-=-=-=-=
Dave Matthews Band
Sleep To Dream Her
Everyday (2001)
Tabbed by Leandro Koren
[email protected]
=-=-=-=-=-=-=-=-=-=-=-=-=-=

Intro & Verses:

E|-|------------------------------------------------------|-|
B|-|----12-12--12----12-12--12----12-12--12----11-11--11--|-|
G|-|----11-11--11----11-11--11----11-11--11----11-11--11--|-|
D|-|------------------------------------------------------|-|
A|-|------------------------------------------------------|-|
e|-|--11-----11----10-----10----9------9-----9------9-----|-|

E|-|-----------------------------------------------------------------|-|
B|-|---10-10--10--10-10--10--9-9--9--8-8--8--8-8--8--8-8--8--7-7--7--|-|
G|-|---11-11--11--11-11--11--9-9--9--7-7--7--7-7--7--7-7--7--7-7--7--|-|
D|-|-----------------------------------------------------------------|-|
A|-|-----------------------------------------------------------------|-|
e|-|--8-----8---7------7---7----7--7----7--6----6---5---5--5----5----|-|

E|-|---------------------------------------|-|
B|-|----5-5--5---5-5--5---5-5--5---5-5--5--|-|
G|-|----7-7--7---7-7--7---6-6--6---6-6--6--|-|
D|-|---------------------------------------|-|
A|-|---------------------------------------|-|
e|-|--5----5---5----5---5----5---5----5----|-|


Verse I:

I know I'll miss her later
Wish I could bend my love to hate her
Wish I could be her creator
To twist her arms now

She stares up at the stars when
The stars fell from her hair then
I bent down to collect them
And then she was gone

Oh, I sleep just to dream her
I beg the night just to see her
That my only love should be her
Just to lie in her arms

Oh, I came there to find out
Find out she'd made up her mind, oh
My arms are all tied up
To me she was blind
      
Bridge:

      C        Em         A
E|-|--0-0h1-0---0-0h1-0---0-0-7-0-7h9-5--|-|
B|-|--1-------1-0-------0-2--------------|-|
G|-|--2---------0---------2--------------|-|
D|-|--3---------2---------2--------------|-|
A|-|--3---------2---------0--------------|-|
e|-|-------------------------------------|-|

Verse:

This space between us
Where wingless dreams fall earless
Will you not bear me witness
With your back to me now

It seemed so unnerving
Still somehow deserving
That she could hold my heart so tightly
And still not see me here, oh

Oh, I sleep just to dream her
Beg the night just to see her
That my only love should be her
Just to lie in her arms

I know I'll miss her later
Wish I could bend my love to hate her
Wish I could be her creator
To be the light in her eyes


Текст, аккорды и табулатура для песни "Sleep To Dream Her", исполняет "Dave Matthews Band".
Используемые в песне аккорды можно найти в разделе Как брать аккорды. Аккорды для шестиструнной гитары. Другие песни можно найти на нашем сайте, воспользовавшись алфавитным указателем вверху страницы.


 
Ошибка в тексте? Выделите ошибку и нажмите Ctrl+Enter