*****************************
*Artist:Dave Matthews Band
*Song:JTR
*Tabber:Attkins13    
*Comments:Played on a 12 string
*****************************

*Intro-Verse*
E-------------------------------------------------------
B----------------------------------0--------------------
G-----2p0---2/4--------4-0-------5p0------4-4-4--2-0----
D-----0-0--------------0-0--1/3-----------0-0-0--0-0----
A-------------------------------------------------------
E--2/~~~~~3-------- 3------------------3----------------

*Chorus*
E----------------------------
B----------------------------
G--5--5--5--5---5--4--3--2---
D--2--3--2--3---2--x--1--3---
A--x--x--x--x---x--2--x--3---  
E--5--5--5--5---5--3--3--1---

*Fill* *(inbetween riffs)*
E-----
B-----
G-----
D--3--
A--x--
E--1--

*First Jam*
E------------------------------------------------------------------
B------------------------------------------------------------------
G------------------------------------------------------------------
D--5-5-5-------------5-5-5----------5-5-5----------------5-5-5-----
A--2/3-2---5-5-5--5--2/3-2---3--3---2/3-2----5-5-5--5----2/3-2--3--
E----------2/3-2--3----------1--0------------2/3-2--3-----------1--

*Pre-Second jam*
*Use a rythmatic pattern for this (just strum here and there)*
E-----
B-----
G--9--
D--9--
A--7--
E-(0)-

*1st part-Second Jam*
E------------------------
B------------------------
G------------------------
D------------------------
A---7---------5---6-6----
E-----4-5-6-7---7--------

*Breakdown in jam* (strum)
E----------------------
B----------------------
G----------------------
D--9----7----6----7----
A--7----5----4----5----
E-(0)------------------

*and then 2nd part of 2nd jam* (there is a slight change)
E---------------------------------
B---------------------------------
G---------------------------------
D--------------------------------- x4 and then 1st part 8x 
A---7---------5-----5-----5-5-6---
E-----4-5-6-7---7-7---7-7---------

*Ending* (strum)
E------------2----
B------------3----
G------------4----
D--9----6----4----
A--7----4----2----
E-(0)-------------

******************************************************************************
*Thats All folks! This song is very fun! Hope you enjoy! please leave comments!
******************************************************************************


Текст, аккорды и табулатура для песни "Jtr", исполняет "Dave Matthews Band".
Используемые в песне аккорды можно найти в разделе Как брать аккорды. Аккорды для шестиструнной гитары. Другие песни можно найти на нашем сайте, воспользовавшись алфавитным указателем вверху страницы.


 
Ошибка в тексте? Выделите ошибку и нажмите Ctrl+Enter