DAVE MATTHEWS BAND
Jimi Thing (solo)

	This is not on the album, but dave usually plays it live. It is rare that
dave plays a solo so when he does its gooood shit. I just can't believe i'm the first
person to tab it because its awsome.  This is taken from listener supported.  He plays
it pretty close to this every time whith some improv and variation.  Play it very
sharply with some palm muting.

---any questions or [email protected]

[email protected]---------------|
--------------------------------------12/0--------------------------------------|
--------------------------------------------------------------------------------|
-------------------------10--11--12---------------------------------------------|
-------------10--11--12---------------------------------------------------------|
-10--11--12---------------------------------------------------------------------|


--------------------------------------------------------------------------------|
--------------------------------------------------------------------------------|
--------------------------------------------------------------------------------|
--------------------------------------------------------------------------------|
--------------------------------------------------------------------------------|
-------------10--11--12--12--13--14--12--13--14---------------------------------|
-10--11--12--------------10--11--12--10--11--12---3---0-------------------------|


----------------------------10-10-------------------------------------------12--|
----------------------------10-10-------------12-12----------------12-12----12--|
----------------------------------------------12-12----------------12-12--------|
--------------------------------------------------------------------------------|
-------------10--11--12---------------------------------------------------------|
-10--11--12-------------------------10/3--10--------10--3/10--10----------------|


Текст, аккорды и табулатура для песни "Jimi Thing", исполняет "Dave Matthews Band".
Используемые в песне аккорды можно найти в разделе Как брать аккорды. Аккорды для шестиструнной гитары. Другие песни можно найти на нашем сайте, воспользовавшись алфавитным указателем вверху страницы.


 
Ошибка в тексте? Выделите ошибку и нажмите Ctrl+Enter