Song: Dancing Nancies
Artist: Dave Matthews Band
Tabbed By: Chase Buchanan

~~~~~~Intro:        Could i have been, a parking lot attendant...
E-----------------------------------------------------------------|
B-----------------------------------------------------------------|
G-----------------------------------------------------------------|
D-------5--------5-----------4---------4--------------------------|
A-----------------------------------------------------------------|
E--3--------3----------2----------2-------------------------------|


~~~~Verse:      He stands, touch his hair , his shoes untied....

!!!!its just these cords switching back and forth
E------------------------------------------------------------------|
B------------------------------------------------------------------|
G--------4 4---4-4-------------------------------------------------|
D--------x-x---x-x-------------------------------------------------|
A--------2-2-- x-x-------------------------------------------------|
E--------3-3---2-2-------------------------------------------------|

~~~~~~On the next verses he does this

E----------------000h2----------------000h2---------------------------|
B----------------000h2----------------000h2---------------------------|
G----4---x--4---444---4--4--x---4-4 --444-4---------------------------|
D----x---x--x---xxx---x--x--x---x-x---xxx-x---------------------------|
A----2---x--2---2--------x--x-- x-x---2-------------------------------|
E----3---x--3---3--------2--x---2-2---3-------------------------------|


~~~~prechorus:  And I Look up at the sky.....

!this just repeats itself

 Look..up.....
E-------------------------------------------------------------------|
B-------------------------------------------------------------------|
G---6-x-----66-x---- 66--x-------66-x-------66-x--------------------|
D---7-x-----77-x---- 77--x-------77-x-------77-x--------------------|
A---5-x--5-xx-x---5-xx--x------x-x -x----x--xx x--------------------|
E---x-x--x---------------------5---------5--------------------------|

Chorus:  Sing and dance.......
E-------------2222------------------------------------------------|
B-------------3333------------------------------------------------|
G---7777------2222-------6666------6666---------------------------|
D---7777------0000-------7777------6666---------------------------|
A---5555-----------------7777------xxxx---------------------------|
E------------------------5555------4444---------------------------|

Thats pretty much it, email me for corrections.


Текст, аккорды и табулатура для песни "Dancing Nancies", исполняет "Dave Matthews Band".
Используемые в песне аккорды можно найти в разделе Как брать аккорды. Аккорды для шестиструнной гитары. Другие песни можно найти на нашем сайте, воспользовавшись алфавитным указателем вверху страницы.


 
Ошибка в тексте? Выделите ошибку и нажмите Ctrl+Enter