-=-=-=-=-=-=-=-=-=-=-=-=-=-=-=-=-=-=-=
Dave Matthews Band         
Crash Into Me              
Crash                      
Tabbed By Leandro Koren    
[email protected] 
-=-=-=-=-=-=-=-=-=-=-=-=-=-=-=-=-=-=-=

Intro & Verses & Bridge & Pre-Chorus:

Intro X 2:

E||-----0-0-0-0----0-0-0----0--0-0-0-0--|
B||-----5-5-5-5----5-5-5----5--5-5-5-5--|
G||-----4-4-4-4----4-4-4----4--4-4-4-4--|
D||-----2-2-2-2----2-2-2----2--2-2-2-2--|
A||---4----------0-------2--------------|
e||-------------------------------------|

E|----0-0-0----0-0-0-0----0-0-0-----0--0-0-0-0-----0-0-0--||
B|----5-5-5----5-5-5-5----5-5-5-----5--5-5-5-5-----5-5-5--||
G|----4-4-4----4-4-4-4----4-4-4-----4--4-4-4-4-----4-4-4--||
D|-------------2-2-2-2----2-2-2-----2--2-2-2-2-----2-2-2--||
A|----------------------0--------2------------------------||
e|--0--------4----------------------------------0---------|| X 2

Verse I:

You've got your ball,
You've got your chain
Tied to me tight, tie me up again.
Who's got their claws
In you, my friend?
Into your heart I'd beat again
Sweet like candy to my soul
Sweet you rock,
And sweet you roll
Lost for you, I'm so lost for you

This is the Chorus riff:

E||-------0------------------------------------0-----------||
B||-------5------------------------------------0-------3---||
G||-------4------------------------------------1-------2---||
D||--------------------------------------------2-------0---||
A||-----4--------------------------0-----2-----2-------X---||
e||--------------------------4-----------------0-------2---||

     Oh, and you come crash                       into     me

Verse Again:

And I come into you
I come into you

With Guitar 2 Here:

E||--0-0-0-2--0--0-0-0-2--0--0-0-0-4--0--0-0-0-4----||
A||--5-5-5-5--5--5-5-5-5--5--5-5-5-5--5--5-5-5-5----||
G||--4-4-4-4--4--4-4-4-4--4--4-4-4-4--4--4-4-4-4----||
D||-------------------------------------------------||
A||-------------------------------------------------||
e||-------------------------------------------------||

In a boy's dream
In a boy's dream

Guitar 1:

E||-----0-0-0-0----0-0-0----0--0-0-0-0--|
B||-----5-5-5-5----5-5-5----5--5-5-5-5--|
G||-----4-4-4-4----4-4-4----4--4-4-4-4--|
D||-----2-2-2-2----2-2-2----2--2-2-2-2--|
A||---4----------0-------2--------------|
e||-------------------------------------|

E|----0-0-0----0-0-0-0----0-0-0-----0--0-0-0-0-----0-0-0--||
B|----5-5-5----5-5-5-5----5-5-5-----5--5-5-5-5-----5-5-5--||
G|----4-4-4----4-4-4-4----4-4-4-----4--4-4-4-4-----4-4-4--||
D|-------------2-2-2-2----2-2-2-----2--2-2-2-2-----2-2-2--||
A|----------------------0--------2------------------------||
e|--0--------4----------------------------------0---------||

Lyrics:

You've got your ball,
You've got your chain
Tied to me tight, tie me up again.
Who's got their claws
In you, my friend?
Into your heart I'd beat again
Sweet like candy to my soul
Sweet you rock,
And sweet you roll
Lost for you, I'm so lost for you

Chorus:

Oh, and you come crash into me
And I come into you
I come into you
In a boy's dream
In a boy's dream

Pre-Chorus:

And oh, I kiss you just so I know
Oh, in your eyes, love, it glows so
I'm bare-boned and crazy... for you.

Chorus:

Oh, and you come crash into me, yeah
Baby, please come crash into me
In a boy's dream
In a boy's dream

Verse III:

Oh, if I've gone overboard
Then I'm begging you
To forgive me, love
Oh, in my haste
When I'm holding you up girl,
Close to me

Chorus:

And you come crash into me, yeah
Baby, and I come into you
Oh, hike up your skirt a little more
And show the world to me
Yeah, hike up your skirt a little more
And show your world to me
In a boy's dream....
In a boy's dream....

Bridge:

I watch you there
By the window
And I stare at you
You wear nothing, but you
Wear it so well
Tied up and twisted,
The way I'd like to be
For you, for me, come crash into me
Aw yeah, come crash into me, baby

Crash into me...
Crash into me...
Crash into me...

Chorus:

You know, well, I'm the king of the castle,
You're the dirty rascal, crash into me.
Won't you come crash into me, baby...

The way you do, the way you do...
Oh yes, I see the waves
Come and crash into me.
Oh yes, I see the waves come and crash into me.
Crash into me...

Crash into me, baby...
-=-=-=-=-=-=-=-=-=-=-=-=-=-=-=-=-=-=-=-=-=-=-=-=-=-=-=-=-=-=-=-=-=-=-=-=-=-=
-=-=-=-=-=-=-=-=-=-=-=-=-=-=-=-=-=-=-=-=-=-=-=-=-=-=-=-=-=-=-=-=-=-=-=-=-=-=
Any questions mail me:
[email protected]
[email protected]=-=-=-=-=-=
-=-=-=-=-=-=-=-=-=-=-=-=-=-=-=-=-=-=-=-=-=-=-=-=-=-=-=-=-=-=-=-=-=-=-=-=-=-=


Текст, аккорды и табулатура для песни "Crash Into Me", исполняет "Dave Matthews Band".
Используемые в песне аккорды можно найти в разделе Как брать аккорды. Аккорды для шестиструнной гитары. Другие песни можно найти на нашем сайте, воспользовавшись алфавитным указателем вверху страницы.


 
Ошибка в тексте? Выделите ошибку и нажмите Ctrl+Enter