-------------------------------------------------------------------------------
			     You Build Me Up ( To Bring Me Down )
-------------------------------------------------------------------------------
Tabbed by: Yeroc
Email: Complaints go to [email protected]       
       Requests to      [email protected]

Tuning: Standard Tuning

e|-------------------------------|
B|-------------------------------|
G|-----3-5-5-5-3-----------------|
D|-3-5-3-5-5-5-3-5-3-5-5-5-------|    X 4
A|-3-5-----------5-3-5-5-5-------|
E|-------------------------------|


 Verse: There isn't much guitar during the verse its mainly bass and drums.So
        timing can be tricky
e|---------------|
B|---------------|
G|---------------|
D|-5~~~~~~~~~~~--| Let this Ring out aswell as a Vibrato
A|-5~~~~~~~~~~~--|
E|---------------|
 
e|-------------------|
B|-------------------|
G|--5-3--------------|
D|--5-3-5~~~~~~~~~~--|
A|------5~~~~~~~~~~--| Let this ring out
E|-------------------|

e|---------|
B|---------|
G|-5-3-----|
D|-5-3-5---|
A|-----5---|
E|---------|

Chorus : This is the same riff as the intro
e|---------------------------|
B|---------------------------|
G|-----3-5-5-5-3-------------|
D|-3-5-3-5-5-5-3-5-3-5-5-5---| X 4
A|-3-5-----------5-3-5-5-5---|
E|---------------------------|

Verse Two : Follows The Same Pattern as the first

e|---------------|
B|---------------|
G|---------------|
D|-5~~~~~~~~~~~--| Let this Ring out aswell as a Vibrato
A|-5~~~~~~~~~~~--|
E|---------------|
 
e|-------------------|
B|-------------------|
G|--5-3--------------|
D|--5-3-5~~~~~~~~~~--|
A|------5~~~~~~~~~~--| Let this ring out
E|-------------------|

e|---------|
B|---------|
G|-5-3-----|
D|-5-3-5---|
A|-----5---|
E|---------|

Chorus : Same as before 

Chorus : This is the same riff as the intro
e|---------------------------|
B|---------------------------|
G|-----3-5-5-5-3-------------|
D|-3-5-3-5-5-5-3-5-3-5-5-5---| X 4
A|-3-5-----------5-3-5-5-5---|
E|---------------------------|

Bridge : Ok theres 2 guitars to this part, one is playing an underlying riff 
         Underneath a guitar using a wah-wah. I haven't worked out the lead
         guitar part yet so the Ryhthm guitar will have to do.
e|-------------------------------------------|
B|-------------------------------------------|
G|-3~~~~~~~~~~~------------------------------|
D|-3~~~~~~~~~~~-5~~~~~~~~~~~~-3~~~~~~~~~~~~~-|
A|--------------5~~~~~~~~~~~~-3~~~~~~~~~~~~~-|
E|-------------------------------------------|

         
Solo : Still working on the solo, its basically an E Minor Penatonic Around The
12th fret with A wah-wah and feed back so I should have it worked out soon, its also quite improvised
       

Outro :            

Chorus : This is the same riff as the intro
e|---------------------------|
B|---------------------------|
G|-----3-5-5-5-3-------------|
D|-3-5-3-5-5-5-3-5-3-5-5-5---| X 8
A|-3-5-----------5-3-5-5-5---|
E|---------------------------|

Also after Four Times the 2nd guitar comes in with a Wah-Wah doing some
improvisations

That's it for now, I'll come back and get the solo done aswell as the bit
in the bridge with the Wah-Wah. Hope this is right for you Datsuns Fans.


Текст, аккорды и табулатура для песни "You Build Me Up", исполняет "Datsuns".
Используемые в песне аккорды можно найти в разделе Как брать аккорды. Аккорды для шестиструнной гитары. Другие песни можно найти на нашем сайте, воспользовавшись алфавитным указателем вверху страницы.


 
Ошибка в тексте? Выделите ошибку и нажмите Ctrl+Enter