#----------------------------------PLEASE NOTE--------------------------------#
#This file is the author's own work and represents their interpretation of the#
#song. You may only use this file for private study, scholarship, or research.#
#-----------------------------------------------------------------------------#
#-- File created with Instab - http://www.pconline.com/~smcarey/instab.html --#
#-----------------------------------------------------------------------------#

Author/Artist: The Datsuns
Title: What Would I Know
Album: The Datsuns
Transcribed by: Richard Andrew Harry Beddington (Beddo)
Email: [email protected]

The multipliers next to the riffs may be wrong I did it off the top
of my head but it sounds good.

Standard Tuning

Main Riff
-|----------------------------------------------------------------------------
-|----------------------------------------------------------------------------
-|-----11-9--------------11-9-9h11p9-11-9-------------------------------------
-|--------------11-9----------------------11-9--------------------------------
-|----------------------------------------------------------------------------
-|-9-9------9-9------9-9------------------------------------------------------ x2
                                                                              
Main Riff (Gtr 1)
-|----------------------------------------------------------------------------
-|----------------------------------------------------------------------------
-|-----11-9--------------11-9-9h11p9-11-9-------------------------------------
-|--------------11-9----------------------11-9--------------------------------
-|----------------------------------------------------------------------------
-|-9-9------9-9------9-9------------------------------------------------------
 |
 | (Gtr 2)
-|----------------------------------------------------------------------------
-|----------------------------------------------------------------------------
-|-6-6-119--6-6-6-4--6-6-119-119-6-4------------------------------------------
-|-6-6-119--6-6-6-4--6-6-119-119-6-4------------------------------------------
-|-4-4-9-7--4-4-4-2--4-4-9-7-9-7-4-2------------------------------------------
-|---------------------------------------------------------------------------- x2
                                                                              
Verse
-|----------------------------------------------------------------------------
-|----------------------------------------------------------------------------
-|-6-6-6-6-6--11-6-6-6-6-6--11-6-6-6-6-6--11-9-9-9-9-4-4-4-4------------------
-|-6-6-6-6-6--11-6-6-6-6-6--11-6-6-6-6-6--11-9-9-9-9-4-4-4-4------------------
-|-4-4-4-4-4--9--4-4-4-4-4--9--4-4-4-4-4--9--7-7-7-7-2-2-2-2------------------
-|---------------------------------------------------------------------------- x2
                                                                              
Bridge
-|----------------------------------------------------------------------------
-|----------------------------------------------------------------------------
-|--------6-4------------6-4------------6-4-----------------------------------
-|-6------6-4-2-4-6------6-4-2-4-6------6-4-2-4-7------9-9-9-9-9-9------------
-|-6------4-2-2-4-6------4-2-2-4-6------4-2-2-4-7------9-9-9-9-9-9------------
-|-4----------0-2-4----------0-2-4----------0-2-5------7-7-7-7-7-7------------
      
Main Riff
-|----------------------------------------------------------------------------
-|----------------------------------------------------------------------------
-|-----11-9--------------11-9-9h11p9-11-9-------------------------------------
-|--------------11-9----------------------11-9--------------------------------
-|----------------------------------------------------------------------------
-|-9-9------9-9------9-9------------------------------------------------------ x2
                                                                        
Verse
-|----------------------------------------------------------------------------
-|----------------------------------------------------------------------------
-|-6-6-6-6-6--11-6-6-6-6-6--11-6-6-6-6-6--11-9-9-9-9-4-4-4-4------------------
-|-6-6-6-6-6--11-6-6-6-6-6--11-6-6-6-6-6--11-9-9-9-9-4-4-4-4------------------
-|-4-4-4-4-4--9--4-4-4-4-4--9--4-4-4-4-4--9--7-7-7-7-2-2-2-2------------------
-|---------------------------------------------------------------------------- x2

Bridge
-|----------------------------------------------------------------------------
-|----------------------------------------------------------------------------
-|--------6-4------------6-4------------6-4-----------------------------------
-|-6------6-4-2-4-6------6-4-2-4-6------6-4-2-4-7------9-9-9-9-9-9------------
-|-6------4-2-2-4-6------4-2-2-4-6------4-2-2-4-7------9-9-9-9-9-9------------
-|-4----------0-2-4----------0-2-4----------0-2-5------7-7-7-7-7-7------------

Main Riff
-|----------------------------------------------------------------------------
-|----------------------------------------------------------------------------
-|-----11-9--------------11-9-9h11p9-11-9-------------------------------------
-|--------------11-9----------------------11-9--------------------------------
-|----------------------------------------------------------------------------
-|-9-9------9-9------9-9------------------------------------------------------ x2
                                                                        

Interlude
-|----------------------------------------------------------------------------
-|----------------------------------------------------------------------------
-|-6-------------9---4---6------6-------------9---4---6-----------------------
-|-6------4------9---4---6------6------4------9---4---6-----------------------
-|-4------4------7---2---4------4------4------7---2---4-----------------------
-|--------2----------------------------2--------------------------------------
                                                                              
Bass Arranged For Guitar
-|----------------------------------------------------------------------------
-|----------------------------------------------------------------------------
-|----------------------------------------------------------------------------
-|----2--4-2--------2--4-2--------2--4-2--------2-4---------------------------
-|-4---------4-2-4---------4-2-4---------4-2-4------2-2-2---------------------
-|----------------------------------------------------------------------------x4
                                                                              
Riff 2
-|----------------------------------------------------------------------------
-|----------------------------------------------------------------------------
-|--6666-6666-6666-6666---------------------9999-9999-11111111-11111111-6666--
-|--6666-6666-6666-6666-4444-4444-4444-4444-9999-9999-11111111-11111111-6666--
-|--4444-4444-4444-4444-4444-4444-4444-4444-7777-7777-9-9-9-9--9-9-9-9--4444--
-|----------------------2222-2222-2222-2222-----------------------------------
 |                                                                             
-|----------------------------------------------------------------------------
-|----------------------------------------------------------------------------
-|--6666-6666-6666------------------------------------------------------------
-|--6666-6666-6666------------------------------------------------------------
-|--4444-4444-4444------------------------------------------------------------
-|----------------------------------------------------------------------------x2
                                                                              
Riff 3 (With Solo)
-|----------------------------------------------------------------------------
-|----------------------------------------------------------------------------
-|-6-6-6-6-6-6-6-6-1111119-111111119-9-9-9-4-4-4-4-2-2-2-2-2-2-2-2------------
-|-6-6-6-6-6-6-6-6-1111119-111111119-9-9-9-4-4-4-4-2-2-2-2-2-2-2-2------------
-|-4-4-4-4-4-4-4-4-9-9-9-7-9-9-9-9-7-7-7-7-6-6-6-6-4-4-4-4-4-4-4-4------------
-|----------------------------------------------------------------------------x2
                                                                              
Outro
-|----------------------------------------------------------------------------
-|----------------------------------------------------------------------------
-|-6--8--9--13-11-9--8--6--9-8-4--9-8-4--6------------------------------------
-|-6--8--9--13-11-9--8--6--9-8-4--9-8-4--6------------------------------------
-|-4--6--7--11-9--7--6--4--7-6-2--7-6-2--4------------------------------------
-|---------------------------------------------------------------------------- to fade


Текст, аккорды и табулатура для песни "What Would I Know", исполняет "Datsuns".
Используемые в песне аккорды можно найти в разделе Как брать аккорды. Аккорды для шестиструнной гитары. Другие песни можно найти на нашем сайте, воспользовавшись алфавитным указателем вверху страницы.


 
Ошибка в тексте? Выделите ошибку и нажмите Ctrl+Enter