-------------------------------------------------------------------------------
		     That Sure Aint Right - The Datsuns
-------------------------------------------------------------------------------
Tabbed by: RiffRaff16
Email: [email protected]

The 2nd Track from outta sight/Outta mind that I've tabbed. This is one of the most 
datsuns songs there is, with great use of wah in the solos, so if u don't already have a 
get one! now!

Tuning: standard

VERSE: Guitar 1

  Main riff: Fig.1
e|---------------------------------------------------------------------------|
B|---------------------------------------------------------------------------|
G|---------------------------------------------------------------------------|
D|-------0-------------------------------------------------------------------|
A|--0h2-----2p0--------0-----0-2p0-------------------------------------------|
E|---------------3-0------3----------3--0------------------------------------|

  Fig.2 (F#7)
e|---------------------------------------------------------------------------|
B|---------------------------------------------------------------------------|
G|---------------------------------------------------------------------------|
D|--4-----4-----4--4--4--4-----4--4-----4--4--4------------------------------|
A|--4-----4-----4--4--4--4-----4--4-----4--4--4------------------------------|
E|--2-----2-----2--2--2--2-----2--2-----2--2--2------------------------------|

  Fig.1
  Fig.2
  Fig.1

  Fig.3 (B)
e|---------------------------------------------------------------------------|
B|---------------------------------------------------------------------------|
G|--4-----4-----4--4--4--4-----4--4-----4--4--4------------------------------|
D|--4-----4-----4--4--4--4-----4--4-----4--4--4------------------------------|
A|--2-----2-----2--2--2--2-----2--2-----2--2--2------------------------------|
E|---------------------------------------------------------------------------|

  Fig.1
  Fig.2

CHORUS: Guitar 1

  Fig.4 (play 3 times)
e|---------------------------------------------------------------------------|
B|---------------------------------------------------------------------------|
G|----------------4----------------------------------------------------------|
D|--2-------------4-------------4--------------------------------------------|
A|--2-------------2-------------4--------------------------------------------|
E|--0---------------------------2--------------------------------------------|

  Fig.5
e|---------------------------------------------------------------------------|
B|---------------------------------------------------------------------------|
G|--4-------------2----------------------------------------------------------|
D|--4-------------2-------------4-----4-----4--4--4--4-----4--4-----4--4--4--|
A|--2-------------0-------------4-----4-----4--4--4--4-----4--4-----4--4--4--|
E|------------------------------2-----2-----2--2--2--2-----2--2-----2--2--2--|

Repeat VERSE
       CHORUS

BRIDGE: Guitar 2
  Fig.6 (play twice)
e|--2-------------5-------------5--------------------------------------------|
B|--4-------------7-------------9--------------------------------------------|
G|--4-------------7-------------9--------------------------------------------|
D|--4-------------7-------------9--------------------------------------------|
A|--2-------------5-------------7--------------------------------------------|
E|---------------------------------------------------------------------------|

  Fig.7
e|--2-------------5-------------5-------------10-----------------------------|
B|--4-------------7-------------9-------------12-----------------------------|
G|--4-------------7-------------9-------------12-----------------------------|
D|--4-------------7-------------9-------------12-----------------------------|
A|--2-------------5-------------7-------------10-----------------------------|
E|---------------------------------------------------------------------------|

  Fig.6

  For the solo play this order: Fill, Fig.2, Fill, Fig.2, Fill, Fig.3, Fill although 
2 solos throughout, it is more
  noticeable when guitar 1 pauses.
  So basically replace Fig.1s of the verse pattern with fills played in the E minor 
at the 12th fret with some
  serious wah. heres a little example of one of those fills...

  2nd fill
    o     +    o       +    o       +    o       +   (wah legend at bottom of page)
e|---------------------------------------------------------------------------|
B|--12~~12~~~--1515~~15~~~---------------------------------------------------|
G|--------------------------1212~~12~~~--1414~~14----------------------------|
D|---------------------------------------------------------------------------|
A|---------------------------------------------------------------------------|
E|---------------------------------------------------------------------------|

  Cheers ;)

| o  open wah (heel down)
| +  closed wah (toe down)
| /  slide up
|   slide down
| h  hammer-on
| p  pull-off
| ~  vibrato
| x  Mute note
===============================================================================


Текст, аккорды и табулатура для песни "That Sure Aint Right", исполняет "Datsuns".
Используемые в песне аккорды можно найти в разделе Как брать аккорды. Аккорды для шестиструнной гитары. Другие песни можно найти на нашем сайте, воспользовавшись алфавитным указателем вверху страницы.


 
Ошибка в тексте? Выделите ошибку и нажмите Ctrl+Enter