-------------------------------------------------------------------------------
	 Tonight I'll Take What I can Get - Dashboard Confessional
-------------------------------------------------------------------------------
Tabbed by: Khrys Hacala (anti_khrys)
Email: [email protected]

Tuning: standard

Here is my attempt at tabbing one of the rarer Dashboard songs out there. Although 
it is hard to find, it is definitely anti_khrys calibur. In this song, the chorus 
varies from one to another. I tabbed out both variations so just listen to the song 
to figure out when to play each. It's simple enough because Chris' voice goes from 
low to high and from high to low as the chords do.


Intro
e|-----0--0-0-0-----0--0-0-0-----0--0-0-0-----0--0-0-0-----------------------|
B|-----1--1-1-1-----1--1-1-1-----1--1-1-1-----1--1-1-1-----------------------|
G|-----0--0-0-0-----0--0-0-0-----0--0-0-0-----0--0-0-0-----------------------|
D|-----2--2-2-2-----2--2-2-2-----2--2-2-2-----2--2-2-2-----------------------|
A|--3--3--3-3-3--3--3--3-3-3--3--3--3-3-3--3--3--3-3-3-----------------------|
E|--0--0--0-0-0--0--0--0-0-0--0--0--0-0-0--0--0--0-0-0-----------------------|

Verse
e|--0---0---0---0---0---0---0-----------------------------------------------|
B|--1---1---1---1---1---1---1-----------------------------------------------|
G|--0---0---2---2---2---0---2-----------------------------------------------|
D|--2---0---2---2---3---0---2-----------------------------------------------|
A|--3---2---0---0---0---2---0-----------------------------------------------|
E|--0---0---0---0---0---0---0-----------------------------------------------|

Chorus
e|--0-----0----0----0----0-----0--------------------------------------------|
B|--1-----1----1----1----1-----1--------------------------------------------|
G|--2-----2----0----0----0-----0--------------------------------------------|
D|--3-----2----0----2----0-----2--------------------------------------------|
A|--0-----0----2----3----2-----3--------------------------------------------|
E|--0-----0----0----0----3-----0--------------------------------------------|
  tonight I'll take what I can get 

Chorus 2
e|--0-----0----0----0----0-----0--------------------------------------------|
B|--1-----1----1----1----1-----1--------------------------------------------|
G|--0-----0----2----2----0-----0--------------------------------------------|
D|--2-----0----2----2----0-----2--------------------------------------------|
A|--3-----2----0----0----2-----3--------------------------------------------|
E|--0-----0----0----0----3-----0--------------------------------------------|
  tonight I'll take what I can get

Well, there it is. The bridge is a little difficult to hear so I'm still working 
on it. Suggestions or improvements are always welcome. Also, please send fanmail
with a return email address and full name so I can get back to you. 

Keep on rocking in the free world


| /  slide up
|   slide down
| h  hammer-on
| p  pull-off
| ~  vibrato
| +  harmonic
| x  Mute note
=============================================================================


Текст, аккорды и табулатура для песни "Tonight Ill Take What I Can Get", исполняет "Dashboard Confessional".
Используемые в песне аккорды можно найти в разделе Как брать аккорды. Аккорды для шестиструнной гитары. Другие песни можно найти на нашем сайте, воспользовавшись алфавитным указателем вверху страницы.


 
Ошибка в тексте? Выделите ошибку и нажмите Ctrl+Enter