Song: The Sharp Hint of New Tears
Band: Dashboard Confessional
Album: The Swiss Army Romance
Tabbed by:  Alejandro D'Brot 
	    [email protected]


/= slide up
= slide down 
x= muted note or chord

Tuning: Db Ab Db ab ab db

NOTE: The strumming pattern isn't shown except on the parts with repeated 
chords. Just hear the song and find the strumming pattern that you feel 
comfortable with.


[ verse ]

db|-0--0-0--0--0-0--0-0-0-0--|
ab|-0--0-0--0--0-0--0-0-0-0--|
ab|-5--5-5--4--4/5--0-0-0-0--|
Db|-4--4-0--2--2/4--0-0-0-x--|
Ab|-0--0-0--0--0-0--5-5-5-4--|
Db|-----------------5-5-4-2--|


[ chorus ]

db|-0---0-0---0---0-0--0--|
ab|-0---0-0---0---0-0--0--|
ab|-0---5-4---0---5-4--2--|
Db|-0---5-4---4---5-4--2--|
Ab|-0---0-0---2---0-0--0--|
Db|-0---------------------|


[ bridge ]

db|-0---0---0--0---0---0--4-2---4--0--|
ab|-0---0---0--0---0---0--54---5--0--|
ab|-0---4---5--0---4---5--54---5--0--|
Db|-0---0---0--0---0---0--0-0---0--2--|
Ab|-x---x---x--0---0---0--0-0---0--0--|
Db|-5---5---5--0---0---0--0-0---0-----|

db|-0---0---0--0---0---0--4-2-/4---0--|
ab|-0---0---0--0---0---0--54-/5---0--|
ab|-0---4---5--0---4---5--54-/5---0--|
Db|-0---0---0--0---0---0--0-0--0---2--|
Ab|-x---x---x--0---0---0--0-0--0---0--|
Db|-5---5---5--0---0---0--0-0--0------|

Order:

[ verse ] x4
On the way home,
this car hears my confessions.
I think tonight I'll take the long way.
In this weather.
The wind outside is biting.
It has left me feeling tired & exposed.
You've been asking me to bleed.
It seems these kinds of questions
they come too easy to you now.
Your lack of shame comes naturally.
I should not be suprised.
I should have seen it sooner.

[ Chorus ] x4
You expect me to apologize
for things that you've done wrong.
While you're inciting others.
You're owning up to nothing
and I wish that I was gone,
'cause you're not going anywhere.

[ verse ] x4
And this damp air
is fighting my defroster.
My sighs they ring victorious
& fog this tinted glass.
And it's clouded
& so is my head.
The hint of these new tears are sharp.
I try to choke them back.
It's useless.
I am useless against them.
They are beating me with ease.
On the way home
this car hears my confessions.
I think tonight I'll take the long way.

[ bridge ]

[ chorus ] x4
You expect me to apologize
for things that you've done wrong.
While you're inciting others.
You're owning up to nothing
and I wish that I was gone,
because you're not going anywhere.

[ verse ] x1
On the way home,
this car hears my confessions.
I think tonight I'll take the long way.


Текст, аккорды и табулатура для песни "The Sharp Hint Of New Tears", исполняет "Dashboard Confessional".
Используемые в песне аккорды можно найти в разделе Как брать аккорды. Аккорды для шестиструнной гитары. Другие песни можно найти на нашем сайте, воспользовавшись алфавитным указателем вверху страницы.


 
Ошибка в тексте? Выделите ошибку и нажмите Ctrl+Enter