Dashboard Confessional - The Only Gift That I Need
By:Andrew ([email protected]

Intro/Verse
e|---------------------------------------------------------------------------|
B|---------------------------------------------------------------------------|
G|------8-8-5-5-6-6----------------------------------------------------------|
D|-6-6--8-8-5-5-6-6----------------------------------------------------------|
A|-6-6--6-6-3-3-4-4----------------------------------------------------------|
E|-4-4-----------------------------------------------------------------------|
Chorus
e|---------------------------------------------------------------------------|
B|---------------------------------------------------------------------------|
G|-----5-5-6-6-8-8-----------------------------------------------------------|
D|-6-6-5-5-6-6-8-8-----------------------------------------------------------|
A|-6-6-3-3-4-4-6-6-----------------------------------------------------------|
E|-4-4-----------------------------------------------------------------------|

You'll be leaving for the winter
But I look and see that it's true
It's the right thing for you
But it's tough to be moved with the holiday spirit
And to tell you the truth I have big plans for christmas
And high hopes for you

I want you here by my side
Cold nights and fires and white wine
And dreams of holidays to come
But I'll wait for spring to bring you to me
The only gift that I need 

I'll be living off you phone calls
in your letters and your postcards
Every single word is like a secret wish come true
Who cares if were apart for the big days
It's the small ones that made me fall in love with you

I want you here by my side
Cold night and fires and white wine
And dreams of holidays to come
But I'll wait til spring to bring u to me
The only gift that I need 

Only gift that I need 

Only gift that I need 

Only gift that I need


Текст, аккорды и табулатура для песни "The Only Gift That I Need", исполняет "Dashboard Confessional".
Используемые в песне аккорды можно найти в разделе Как брать аккорды. Аккорды для шестиструнной гитары. Другие песни можно найти на нашем сайте, воспользовавшись алфавитным указателем вверху страницы.


 
Ошибка в тексте? Выделите ошибку и нажмите Ctrl+Enter