This is the whole song minus all the awesome lead parts.
Tune half a step down.
e--------------------
B-------6-7----------
G---6-4-6-7----------  Verses
D---7-6-4-5----------
A--------------------
E--------------------

e--------------------
B-----6-7-9----------  
G---6-6-7-9----------  Chorus
D---7-4-5-7----------
A--------------------
E--------------------

e--------------------
B--------------------  
G---2-4-4------------   end
D---4-2-7------------
A--------------------
E--------------------


Текст, аккорды и табулатура для песни "The Only Gift That I Need", исполняет "Dashboard Confessional".
Используемые в песне аккорды можно найти в разделе Как брать аккорды. Аккорды для шестиструнной гитары. Другие песни можно найти на нашем сайте, воспользовавшись алфавитным указателем вверху страницы.


 
Ошибка в тексте? Выделите ошибку и нажмите Ctrl+Enter