------Dashboard Confessional....Standard Lines------

   !!Intro is 100% and the verses and chorus are just the chords that u play in
order.You can figure out the strumming patterns fron the song (REALLY EASY). I
just found chords that were easier to play and sounded almost exactally like the song. enjoy

Eb---------------------------------------------0----------
Bb---0----------------------------------------------0-----
Gb------1h2p1------2----2p1------1h2p1------1h2--1h2------
Db--2---------2--------0----2---2------2---2--------------
Ab-----0----------2--0---------0----------0---------------
Eb-0------------0-------------2----------2----------------

Eb----------------------------------------0----------0------ 
Bb-----0---------------0-------------------------1p0---0h1-- 
Gb--------------------------------------2------2-----------2 
Db---2-----6p4-6p4-4p2---2-4-6p4-2----4------2-------------- 
Ab-------0--------------------------4----------------------- 
Eb-0--------------------------------------------------------

VERSE 

|--------------|
|------2-2-----|
|-1-1--2-2-----| (play for both verses)
|-2-2--2-2--2--|
|-2-2-------2--|
|--------------|

CHORUS

|---------1-1--2-------------
|----2-2--1-1--3--2-1--------
|-1--2-2--2-2--4--2-2-1------
|-2--2-2--3-3--4--2-2-2------
|-2------------2------2------
|--------------2-------------


Текст, аккорды и табулатура для песни "Standard Lines", исполняет "Dashboard Confessional".
Используемые в песне аккорды можно найти в разделе Как брать аккорды. Аккорды для шестиструнной гитары. Другие песни можно найти на нашем сайте, воспользовавшись алфавитным указателем вверху страницы.


 
Ошибка в тексте? Выделите ошибку и нажмите Ctrl+Enter