Dashboard Confessional – Standard Lines

Tuning - Standard

Order of song:

Intro
Verse
Chorus
Intro
Verse
Chrorus
Intro
Last Chord

I HATE WHALES, I HELLZA BE MISSING YOU CHUNKY!!

Intro:


|------------------------------------------------------------0-------|
|------------------------------------------------------------------0-|
|----------------------------------------1-2-1-------------1---1h2---|
|-----9---6-7-6-------7-------7-6------2-------2---------2-----------|
|---7---7-------7---4---4---0--------0-----------0-----0-------------|
|-0---------------0-------0--------2-----------------2---------------|

|------------------------------------------0----------0--------------|
|----------------------0----------------------------0---0------------|
|----------------------------------------2--------5------5-----------|
|-----9---6/4--6/4—4/2---2-4/6—-4/2----4--------7----------7---------|
|---7---7----------------------------4--------7----------------------|
|-0------------------------------------------------------------------|


Verse:


|-0--0--0--0--0--0--0--|-0-------------------------------------------|
|-0--0--0--0--0--0--0--|-0---let-chord-------------------------------|
|-13-13-13-13-13-14-13-|-6-----ring----------------------------------|
|-0--0--0--0--0--0--0--|—6-------------------------------------------|
|-11-11-11-11-11-12-11-|-0-------------------------------------------|
|-0—-0--0--0--0--0--0--|-x-------------------------------------------|


|-0--0--0--0--0--0--0--|-0--0--0--0----------------------------------|
|-0--0--0--0--0--0--0--|-0--0--0--0--let last------------------------|
|-13-13-13-13-13-14-13-|-4--6--2--2----chord-------------------------|
|-0--0--0--0--0--0—-0--|-4--6-—2--2----ring--------------------------|
|-11-11-11-11-11-12-11-|-0--0--0--0----------------------------------|
|-0--0--0--0--0--0--0--|-x--x--x--x----------------------------------|


Chorus:


|-0--0--0--0--0--0--0--0--0------------------------------------------|
|-0--4--0--0--0--0--0--0--0-------listen-to-song---------------------|
|-1--4--6--14-13-11-9--11-6--------for strumming---------------------|
|-2--4--6--0--0--0—-0--0--6---—------pattern-------------------------|
|-2--2--0--12-11-9--7--9--0------------------------------------------|
|-0--0--x--0--0--0--0--0--x------------------------------------------|


Last Chord:


|-0------------------------------------------------------------------|
|-0-----let----------------------------------------------------------|
|-1-----chord--------------------------------------------------------|
|-2-----ring------—-----------—--------------------------------------|
|-2------------------------------------------------------------------|
|-0------------------------------------------------------------------|


yeah thats the song, have fun DOG


Текст, аккорды и табулатура для песни "Standard Lines", исполняет "Dashboard Confessional".
Используемые в песне аккорды можно найти в разделе Как брать аккорды. Аккорды для шестиструнной гитары. Другие песни можно найти на нашем сайте, воспользовавшись алфавитным указателем вверху страницы.


 
Ошибка в тексте? Выделите ошибку и нажмите Ctrl+Enter