Dashboard Confessional - The Sharp Hint of New Tears

Verse:
Listen to the song for the strumming pattern
eb----2------0------3------0-----0-----2-----|
Bb----3------3------0------0-----3-----3-----|
Gb----2------3------0------0-----3-----2-----|
Db----0------3------0------2-----3-----0-----|
Ab----0------0------2------2-----0-----0-----|
Eb----x------0------3------0-----0-----x-----|

Chorus:
Something like this a couple of times. Listen for timing. Don't play the A to D until the last time.
eb----2------------0-----------0-----2----|
Bb----3------------3-----------3-----3----|
Gb----2------------2-----------3-----2----|
Db----0?-2-1-------0-----------3-----0----|
Ab----0-------2-1--0--2-1------0-----0----|
Eb----0------------0------2-1--0-----0----|

Solo: Mostly like the Chorus, but emphasize the pull offs and hammer ons on the top string.
Have fun with the notes on the bottom three strings.
eb----2-----------2p0----------0h2----0-----2----|
Bb----3-------------3------------3----3-----3----|
Gb----2-------------2------------2----3-----2----|
Db----0?-2-1--------0------------0----3-----0----|
Ab----0-------2-1---0--2-1-------0----0-----0----|
Eb----0-------------0------2-1---0----0-----0----|


VERSE
On the way home,
this car hears my confessions.
I think tonight I'll take the long way.
This weather.
The wind outside is biting.
It has left me feeling tired & exposed.
You've been asking me to bleed.
It seems these kinds of questions
come too easy to you now.
Your lack of shame comes naturally.
I should not be suprised.
I should have seen it sooner.

CHORUS
You expect me to apologize
for things that you've done wrong.
While you're inciting others.
You're owning up to nothing
and I wish that I was gone,
because you're not going anywhere.

VERSE
This damp air
is fighting my defroster.
My sighs they ring victorious
& fog this tinted glass.
It's clouded
& so is my head.
The hint of these new tears are sharp.
I try to hold them back.
It's useless.
I am useless against them.
They are beating me with ease.

SOLO

VERSE
On the way home
this car hears my confessions.
I think tonight I'll take the long way.


Текст, аккорды и табулатура для песни "Sharp Hint Of New Tears", исполняет "Dashboard Confessional".
Используемые в песне аккорды можно найти в разделе Как брать аккорды. Аккорды для шестиструнной гитары. Другие песни можно найти на нашем сайте, воспользовавшись алфавитным указателем вверху страницы.


 
Ошибка в тексте? Выделите ошибку и нажмите Ctrl+Enter