Screaming Infidelities
Dashboard Confessional

eamil me at [email protected] if you
want/need other punk or emo tabs!


Tune half-step down to Eb-Ab-Db-Gb-Bb-eb

Guitar 1
      D	    D4      D9       E
eb????2------3-------0-------0---|
Bb??--3------3-------3-------0---|
Gb?---2------2-------2-------2---|
Db?---0------0-------0-------3---|
Ab----0------0-------0-------3---|
Eb----x------x-------x-------0---|

Guitar 2 (Part 1)
eb----------------------------------------------|
Bb----------------------------------------------|
Gb----------------------------------------------|
Db-0--2--4--------2-0--2-4-0--4-2-4-2-4-2-2-----|
Ab---------0--4--2----0-------------------------|
Eb----------------------------------------------|

Guitar 2 (Part 2)
eb-2-3-5-5-3-2-2-0-0-2--------|
Bb----------------------------|
Gb----------------------------|
Db----------------------------|
Ab----------------------------|
Eb----------------------------|


Текст, аккорды и табулатура для песни "Screaming Infidelitites", исполняет "Dashboard Confessional".
Используемые в песне аккорды можно найти в разделе Как брать аккорды. Аккорды для шестиструнной гитары. Другие песни можно найти на нашем сайте, воспользовавшись алфавитным указателем вверху страницы.


 
Ошибка в тексте? Выделите ошибку и нажмите Ctrl+Enter