Title: Screaming Infidelities
Artist: Dashboard Confessional
Album: The Swiss Army Romance
Transcribed by: Eric Tranvinh
E-mail: [email protected]



Tuning:

string 1: e   tuned down 1 and 1/2 steps to   d flat (db)
string 2: B   tuned  up  1 and 1/2 steps to   d flat 
string 3: G   tuned down 2 and 1/2 steps to   D flat (Db)
string 4: D   tuned down    1/2    step  to   D flat
string 5: A   tuned down    1/2    step  to   A flat (Ab)
string 6: E   tuned down 1 and 1/2 steps to   D flat

The result is that strings 1 and 2 have the same pitch and 
strings 3 and 4 have the same pitch


Note: even though strings 1 and 2 will sound different in 
loudness, but will be the same in pitch.  Thus, you can 
switch the fretting between them throughout the song, that is:

db|--5-5-5-
db|--0-0-0-
Db|--0-0-0-
Db|--5-5-5-
Ab|--------
Db|--------

can be played like this:

db|--0-0-0-
db|--5-5-5-
Db|--0-0-0-
Db|--5-5-5-
Ab|--------
Db|--------

Whatever you're comfortable with.

Tablature by Eric Tranvinh
As heard on The Swiss Army Romance
questions or comments?  email at [email protected]


Intro

db|--5-5-5-
db|--0-0-0-
Db|--0-0-0-
Db|--5-5-5-
Ab|--------
Db|--------


Verse

db|-4---4-4-4-4-4-4-4---4-4-4-0-0-0-0---0-0-0-0-0-0-0---0-0-0-5-5-5-
db|-0---0-0-0-0-0-0-0---0-0-0-0-0-0-0---0-0-0-0-0-0-0---0-0-0-0-0-0-
Db|-0---0-0-0-0-0-0-0---0-0-0-0-0-0-0---0-0-0-0-0-0-0---0-0-0-0-0-0-
Db|-4---4-4-4-4-4-4-4---4-4-4-X-X-X-X---X-X-X-X-X-X-X---X-X-X-0-0-0-
Ab|---------------------------2-2-2-3---3-3-3-3-3-3-3---3-3-3-X-X-X-
Db|-----------------------------------------------------------5-5-5-


db|-4---4-4-4-4-4-4-4---4-4-4-0-0-0-2---2-2---2-2-2-2---2-2---5-5-5-
db|-0---0-0-0-0-0-0-0---0-0-0-0-0-0-0---0-0---0-0-0-0---0-0---0-0-0-
Db|-0---0-0-0-0-0-0-0---0-0-0-0-0-0-0---0-0---0-0-0-0---0-0---0-0-0-
Db|-0---0-0-0-0-0-0-0---0-0-0-X-X-X-X---X-X---X-X-X-X---X-X---5-5-5-
Ab|-X---X-X-X-X-X-X-X---X-X-X-4-4-4-2---2-2---2-2-2-1---1-1---------
Db|-4---4-4-4-4-4-4-4---4-4-4---------------------------------------


Chorus  (as for now we're gonna hear the saddest songs...)

db|-4-5-7---7-5-4---7---7-7-7-5-4---2-------4-------5-------5---5-5-
db|-0-0-0---0-0-0---0---0-0-0-0-0---0---0-0-0-------0---0-0-0---0-0-
Db|-0-0-0---0-0-0---0---0-0-0-0-0---0---0-0-0-------0---0-0-0---0-0-
Db|-0-0-0---0-0-0---X---X-X-X-------X---X-X-X-------X---X-X-X---X-X-
Ab|-0---------------7---7-7-7-------2---2-2-2-------5---5-5-5---5-5-
Db|-0-----------------------------------------------5---5-5-5---5-5-


db|-5-4-0-----0-0-0-2-------4-------7-----7-----7-----7-----7-------
db|-0-0-0-----0-0-0-0---0-0-0-------0---0-0---0-0---0-0---0-0-------
Db|-0-0-0-----0-0-0-0---0-0-0-------0---0-0---0-0---0-0---0-0-------
Db|-0-0-0-----------X---X-X-X-------X---X-X---X-X---X-X---X-X-------
Ab|-0-0-0-----------2---2-2-2-------7---7-7---7-7---7-7---7-7-------
Db|-----------------------------------------------------------------


Outro  (Your hair is everywhere, screaming infidelities...)

db|-4---4-4---4-4---4-4---4-4-------0---0-0---0-0---0-0---0-0-------
db|-0---0-0---0-0---0-0---0-0-------0---0-0---0-0---0-0---0-0-------
Db|-0---0-0---0-0---0-0---0-0-------0---0-0---0-0---0-0---0-0-------
Db|-4---4-4---4-4---4-4---4-4-------X---X-X---X-X---X-X---X-X-------
Ab|-0---0-0---0-0---0-0---0-0-------5---5-5---5-5---5-5---5-5-------
Db|-----------------------------0---5---5-5---5-5---5-5---5-5----0--


db|-2---2-2---2-2---2-2---2-2-------0---0-0---0-0---0-0---0-0-------
db|-2---2-2---2-2---2-2---2-2-------0---0-0---0-0---0-0---0-0-------
Db|-2---2-2---2-2---2-2---2-2-------0---0-0---0-0---0-0---0-0-------
Db|-2---2-2---2-2---2-2---2-2-------X---X-X---X-X---X-X---X-X-------
Ab|-2---2-2---2-2---2-2---2-2-------5---5-5---5-5---5-5---5-5-------
Db|-2---2-2---2-2---2-2---2-2---X---5---5-5---5-5---5-5---5-5-------


Ending

db|--5-5-5-4-----------------------
db|--0-0-0-0-----------------------
Db|--0-0-0-0-----------------------
Db|--5-5-5-4-----------------------
Ab|--------0-----------------------
Db|--------------------------------


Текст, аккорды и табулатура для песни "Screaming Infidelities", исполняет "Dashboard Confessional".
Используемые в песне аккорды можно найти в разделе Как брать аккорды. Аккорды для шестиструнной гитары. Другие песни можно найти на нашем сайте, воспользовавшись алфавитным указателем вверху страницы.


 
Ошибка в тексте? Выделите ошибку и нажмите Ctrl+Enter