Saints and Saliors - Dashboard Confessional 
By: Andrew Mcshan ([email protected]) 
Db Ab Db Db Db Db 
Verse: 
This is where i say ive had enough. no one should 
Db-----------------------0-------------------------------0-------------------
Db-----------------------0-------------------------------0------------------- 
Db------0----------------4------------------------------11------------------- 
Db----0---------0--4/5---4------------------------------11-------------------
Ab--2-----2--0-----------0-------------------------------0------------------- 
Db-----------------------0-------------------------------0------------------- 
feel the way that I feel now 
Db---x-x-x-x--0-------x-x-x-x-0---x-x-x-x-5---x-x-x-x-0-------------- 
Db---x-x-x-x--0-------x-x-x-x-0---x-x-x-x-0---x-x-x-x-0-------------- 
Db---x-x-x-x--0-------x-x-x-x-0---x-x-x-x-0---x-x-x-x-0-------------- 
Db---x-x-x-x--0-------x-x-x-x-0---x-x-x-x-0---x-x-x-x-0-------------- 
Ab---x-x-x-x--9-------x-x-x-x-7---x-x-x-x-5---x-x-x-x-5--------------
Db---x-x-x-x--9-------x-x-x-x-7---x-x-x-x-5---x-x-x-x-5-------------- 
A walking open wound a trophy display of bruises 
Db----0---------------------------0------------------- 
Db----0---------------------------0------------------- 
Db----4--------------------------11------------------- 
Db----4--------------------------11------------------- 
Ab----0---------------------------0------------------- 
Db----0---------------------------0------------------- 
and I don't believe that I'm getting any better....any better 
Db---x-x-x-x--0-------x-x-x-x-0---x-x-x-x-0---x-x-x-x-0-----7--------- 
Db---x-x-x-x--0-------x-x-x-x-0---x-x-x-x-0---x-x-x-x-0-----0--------- 
Db---x-x-x-x--0-------x-x-x-x-0---x-x-x-x-0---x-x-x-x-0-----0---------
Db---x-x-x-x--0-------x-x-x-x-0---x-x-x-x-0---x-x-x-x-0-----0--------- 
Ab---x-x-x-x--9-------x-x-x-x-7---x-x-x-x-5---x-x-x-x-5-----7--------- 
Db---x-x-x-x--9-------x-x-x-x-7---x-x-x-x-5---x-x-x-x-5-----7---------
Chorus
Waiting here with hopes the phone will ring, and I'm thinking 
Db----0------------------------------------------5--------------0---- 
Db----0------------------------------------------0--------------0---- 
Db----4------------------------------------------0--------------0---- 
Db----4------------------------------------------0--------------0---- 
Ab----0------------------------------------------5--------------7---- 
Db----0------------------------------------------5--------------7---- 
awful things, pretty sure that few would notice. 
Db----0------------------------------------0---------------------------- 
Db----0------------------------------------0---------------------------- 
Db----4------------------------------------0--------------0------------- 
Db----4------------------------------------0------------0--------0-4/5-- 
Ab----0------------------------------------5----------2-----2--0-------- 
Db----0------------------------------------5----------------------------
And this apartment  is starving for an argument 
Db----0----------------------------5----------------7---------- 
Db----0----------------------------0----------------0---------- 
Db----4----------------------------0----------------0---------- 
Db----4----------------------------0----------------0---------- 
Ab----0----------------------------5----------------7---------- 
Db----0----------------------------5----------------7---------- 
 Anything at all to break the silence 
Db----0------------------------------5---------------------------- 
Db----0------------------------------0--------------------------- 
Db----4------------------------------0--------------0------------- 
Db----4------------------------------0------------0-------0-4/5-- 
Ab----0------------------------------5----------2-----2-0--------- 
Db----0------------------------------5----------------------------- 
Verse 2: 
Wandering this house like i never wanted out 
Db----0------------------------------0-------------------- 
Db----0------------------------------0------------------- 
Db----4-----------------------------11------------------- 
Db----4-----------------------------11------------------ 
Ab----0------------------------------0------------------- 
Db----0------------------------------0------------------- 
and this is about as socialn  as I get now 
Db-----x-x-x-x--0-------x-x-x-x-0---x-x-x-x-0---x-x-x-x-0-------------- 
Db-----x-x-x-x--0-------x-x-x-x-0---x-x-x-x-0---x-x-x-x-0-------------- 
Db-----x-x-x-x--0-------x-x-x-x-0---x-x-x-x-0---x-x-x-x-0-------------- 
Db-----x-x-x-x--0-------x-x-x-x-0---x-x-x-x-0---x-x-x-x-0-------------- 
Ab-----x-x-x-x--9-------x-x-x-x-7---x-x-x-x-5---x-x-x-x-5-------------- 
Db-----x-x-x-x--9-------x-x-x-x-7---x-x-x-x-5---x-x-x-x-5-------------- 
And I'm throwing away the letters that I am writing you 
Db----------0--------------------------------------0-------------------
Db----------0--------------------------------------0------------------- 
Db----------4-------------------------------------11------------------- 
Db----------4-------------------------------------11------------------- 
Ab----------0--------------------------------------0------------------- 
Db----------0--------------------------------------0------------------- 
cause they would never do  I would never do.....never 
Db------------------0----0------0-------------7--------
Db------------------0----0------0-------------0-------- 
Db------------------0----0------0-------------0-------- 
Db------------------0----0------0-------------0-------- 
Ab------------------9----7------5-------------7-------- 
Db------------------9----7------5-------------7-------- 

Chorus 

Bridge: 
So don't be a liar. Don't say that everything's working 
Db--0------------------0--------------------0-------------0----------- 
Db--0------------------0--------------------0-------------0----------- 
Db--0------------------0--------------------4-------------2----------- 
Db--0------------------0--------------------4-------------2----------- 
Ab--9-----------------10--------------------0-------------0----------- 
Db--9-----------------10--------------------0-------------0----------- 
when everything's broken and you smile like a saint, 
Db-------0------------0------------------0------------------------- 
Db-------0------------0------------------0------------------------- 
Db-------5------------2------------------0------------------------- 
Db-------5------------2------------------0------------------------- 
Ab-------0------------0------------------9------------------------- 
Db-------0------------0------------------9------------------------- 
but you curse like a sailor, and your eyes say the jokes on me
Db-------0------------------------------0-------------0---------0---- 
Db-------0------------------------------0-------------0---------0---- 
Db-------0------------------------------4-------------2---------0---- 
Db-------0------------------------------4-------------2---------0----
Ab------10------------------------------0-------------0---------0----
Db------10------------------------------0-------------0---------0----
(Palm Muted) 
Well im not laughing, you're not leaving, well who do I think I am kidding? 
Db---x------------------x-------------------------x---------------x------------ 
Db---x------------------x-------------------------x---------------x------------ 
Db---x------------------x-------------------------x---------------x------------ 
Db---9------------------7-------------------------5---------------7------------ 
Ab---9------------------7-------------------------5---------------7------------ 
Db---9------------------7-------------------------5---------------7------------ 
when I'm the only one locked in this cell. 
Db---x--------------x-------------------0--------------------------- 
Db---x--------------x-------------------0--------------------------- 
Db---x--------------x-------------------0--------------------------- 
Db---9--------------7-------------------0--------------------------- 
Ab---9--------------7-------------------5--------------------------- 
Db---9--------------7-------------------5--------------------------- 

Chorus

Bridge

Outro
Db------------------------0-------- 
Db------------------------0-------- 
Db-------0----------------4-------- 
Db-----0-------- 0--4/5-- 4-------- 
Ab---2-----2---0----------0-------- 
Db------------------------0--------


Текст, аккорды и табулатура для песни "Saints And Sailors", исполняет "Dashboard Confessional".
Используемые в песне аккорды можно найти в разделе Как брать аккорды. Аккорды для шестиструнной гитары. Другие песни можно найти на нашем сайте, воспользовавшись алфавитным указателем вверху страницы.


 
Ошибка в тексте? Выделите ошибку и нажмите Ctrl+Enter