Dashboard Confessional 
“Hands Down” 
Tabbed by: Wendy B.

Here is the CORRECT way to play it this song.

Tune guitar down half a step


INTRO
eb|-----------------------------------------------------------
Bb|-----------------------------------------------------------
Gb|-------1-----------1-2------------------------------------- 
Db|-----4---2-------4----------4/6—-------(4x)---& end with---
Ab|---2-----------2----------2--------------------------------
Eb|-0-----------0----------0----------------------------------

eb|----------------------------|
Bb|----------------------------|
Gb|-------1--------------------|
Db|-----4---2--------4--1------|
Ab|---2-----------2--2--2------|
Eb|-0-----------0--------------|

Verse: These are only the chords being palm muted
 
“Breathe in for luck...”
eb|--x---------x---------x---------x-----x--x--------------------- 
Bb|--x---------x---------x---------x-----x--x---------------------
Gb|--x---------x---------x---------x-----x--x----(3x) & end with--
Db|--x---------6---------2---------4-----7--6---------------------
Ab|--2---------4---------0---------2-----5--7---------------------
Eb|--0---------x---------x---------x-----x--x---------------------

eb:|-x-------------------x--x-------| 
Bb:|-x-------------------x--x-------| 
Gb:|-x-(1x)--instead of--x--x-------| 
Db:|-4-------------------7--6-------| 
Ab:|-2-------------------5--7-------| 
Eb:|-x-------------------x--x-------| 
 

Chorus:
 “My hopes are so high...”

      E       G#mi      Aadd9     G#mi
eb|---0--------4---------0---------4----------------------------| 
Bb|---0--------4---------0---------4----------------------------|
Gb|---1--------4---------6---------4----------------------------|
Db|---2--------6---------7---------6---------6-7-6--------------|
Ab|---2--------6---------7---------6-------4-------4------------|
Eb|-0-0--------4---------5---------4-----5-----------5----------|

Play this twice but, the second time leave out the finger picking part.

Verse 2x:

“The words are harsh...”
eb|--x---------x---------x---------x-----x--x----------------------- 
Bb|--x---------x---------x---------x-----x--x-----------------------
Gb|--x---------x---------x---------x-----x--x----(2x) & end with--—-
Db|--x---------6---------2---------4-----7--6-----------------------
Ab|--2---------4---------0---------2-----5--7-----------------------
Eb|--0---------x---------x---------x-----x--x-----------------------

eb|--x--------x---------x--x---------|
Bb|--x--------x---------x--x---------|
Gb|--x--------x---------x--x---------|
Db|--2—(1x)---4—(1x)----7--6---(1X)--|
Ab|--0--------2---------5--7---------|
Eb|--x--------x---------x--x---------|

Chorus 2x:

“My hopes are so high...”

      E       G#mi      Aadd9     G#mi
eb|---0--------4---------0---------4----------------------------| 
Bb|---0--------4---------0---------4----------------------------|
Gb|---1--------4---------6---------4----------------------------|
Db|---2--------6---------7---------6---------6-7-6--------------|
Ab|---2--------6---------7---------6-------4-------4------------|
Eb|-0-0--------4---------5---------4-----5-----------5----------|

Play this twice but, the second time leave out the finger picking part.


Outro: 

There’s two ways you can play the ending, the first way is used more when using 2
guitars. The second way is if your playing with one guitar, it sounds a little
more fuller.

First way:

“Hands Down...”
eb|--4--------5--------7--------7--------| 
Bb|--5--------5--------7--------7--------|
Gb|--6--------6--------9--------8--------|
Db|--6—---—---7--------9--------9--------|
Ab|--4--------7--------7--------9--------|
Eb|--4--------5--------7--------7--------|

Play this all the way until the end of the song.

Second Way.

“Hands Down...”
eb|--4--------5--------0--------0---------| 
Bb|--5--------5--------0--------0---------|
Gb|--6--------6--------1--------8---------|
Db|--6—---—---7--------2--------9---------|
Ab|--4--------7--------2--------9---------|
Eb|--4--------5--------0--------7---------|

Play this all the way until the end of the song.


I’m too busy to write the strumming right now so just figure it out on your
own I guess, its really easy.


Текст, аккорды и табулатура для песни "Hands Down", исполняет "Dashboard Confessional".
Используемые в песне аккорды можно найти в разделе Как брать аккорды. Аккорды для шестиструнной гитары. Другие песни можно найти на нашем сайте, воспользовавшись алфавитным указателем вверху страницы.


 
Ошибка в тексте? Выделите ошибку и нажмите Ctrl+Enter