-------------------------------------------------------------------------------
			     Hands Down - Dashboard Confessional
-------------------------------------------------------------------------------

Tabbed by:  TJ Henning (Iceman_2000_)
Email:  [email protected]

I promise this is 100% with no doubt right...I watched the live MTV Show on DVD
100 times and watched it frame by frame to make sure it was 100% correct and I
promise this is it.  I'm doing the same with more tabs so look for them soon.

Tuning:
Intro (Repeat)               End On

eb|-------------------------|-------|-----------------------------------------|
Bb|-------------------------|-------|-----------------------------------------|
Gb|------1-------1-2--------|-------|-----------------------------------------|
Db|----4---2---4------------|--4-1--|-----------------------------------------|
Ab|------------------4/6----|-------|-----------------------------------------|
Eb|--0-------0--------------|-------|-----------------------------------------|

Verse (Breath in for luck......)  (Slightly Palm Muted)
     E    A/C#   A     E     G
eb|---------------------------------------------------------------------------|
Bb|--------2-----2------------------------------------------------------------|
Gb|--1-----2-----2-----1-----5------------------------------------------------|
Db|--2-----2-----2-----2-----7------------------------------------------------|
Ab|--2-----4-----0-----2-----7------------------------------------------------|
Eb|--0-----0-----0-----0-----5------------------------------------------------|

Chorus (My hopes are so high...)
     E     G#    A     G#
eb|--0-----4-----0-----4------------------------------------------------------|
Bb|--0-----4-----2-----4------------------------------------------------------|
Gb|--1-----4-----2-----4------------------------------------------------------|
Db|--2-----6-----2-----6------------------------------------------------------|
Ab|--2-----6-----0-----6------------------------------------------------------|
Eb|--0-----4-----------4------------------------------------------------------|

Bridge (Hands down...)

eb|--0-----0-----0-----0------------------------------------------------------|
Bb|--5-----0-----0-----0------------------------------------------------------|
Gb|--6-----6-----9-----8------------------------------------------------------|
Db|--6-----7-----9-----9------------------------------------------------------|
Ab|--4-----7-----7-----9------------------------------------------------------|
Eb|--0-----5-----0-----7------------------------------------------------------|

Ending (You meant it...)

eb|--0-----0-----0-------------------------------------------------------------|
Bb|--5-----0-----0-------------------------------------------------------------|
Gb|--6-----6-----1-------------------------------------------------------------|
Db|--6-----7-----2-------------------------------------------------------------|
Ab|--4-----7-----2-------------------------------------------------------------|
Eb|--0-----5-----0-------------------------------------------------------------|

| /  slide up
|   slide down
| h  hammer-on
| p  pull-off
| ~  vibrato
| +  harmonic
| x  Mute note

===============================================================================


Текст, аккорды и табулатура для песни "Hands Down", исполняет "Dashboard Confessional".
Используемые в песне аккорды можно найти в разделе Как брать аккорды. Аккорды для шестиструнной гитары. Другие песни можно найти на нашем сайте, воспользовавшись алфавитным указателем вверху страницы.


 
Ошибка в тексте? Выделите ошибку и нажмите Ctrl+Enter