Dashboard Confessional - Drowning 
By:Andrew Mcshan([email protected])

Verse
e----0-----------------0-------0------0-----------------0-------0-------|
B----1-----------------0-------1------1-----------------0-------1-------|
G----0-----------------0-------0------0-----------------0-------0-------| 
D----3-----------------0-------2------3-----------------0-------2-------| 
A----3-----------------2-------0------3-----------------2-------0-------| 
E----x-----------------x-------x------x-----------------x-------x-------| 
And we're drowning you out 
in boasts of defection 
if everything was up to me I would be gone by the first sign 
the first sign of hope I'd be packed up and out of my way.

Chorus
e---x----------------x-------------0--------------| 
B---3----------------3-------------0--------------| 
G---0----------------2-------------1--------------|
D---0----------------0-------------2--------------|
A---2----------------0-------------2--------------| 
E---3----------------2-------------0--------------|

e-------------x-------------x------1--------0-------|
B-------------3-------------3------1--------0-------|
G-------------0-------------2------2--------1-------| 
D-------------0-------------0------3--------2-------| 
A-------------2-------------0------3--------2-------| 
E-------------3-------------2------1--------0-------| 
And time has been spread so thin 
and it's just hours till the day begins. 
And the things that are keeping you here are not keeping me here 
and the things that are keeping you here will keep me away.

Bridge 
e--------------0-0-0-0-0-0--1-------------------------0-0-0-0-0-0--1----| 
B--------------1-1-1-1-1-1--1-------------------------1-1-1-1-1-1--1----|
G--------------0-0-0-0-0-0--2-------------------------0-0-0-0-0-0--2----| 
D--------------2-2-2-2-2-2--3-------------------------2-2-2-2-2-2--3----| 
A--------------3-3-3-3-3-3--3-------------------------3-3-3-3-3-3--3----| 
E--------------0-0-0-3-0-3--1-------------------------0-0-0-3-0-3--1----| 
And you'll be sorry 
isn't that what they'll say. 
Don't follow your heart cause it just seems to get in your way.

And don't ever leave here 
and mope at your leisure 
and straighten out your crease here 
and truth is in a tall beer.

Verse
e----0-----------------0-------0------0-----------------0-------0-------|
B----1-----------------0-------1------1-----------------0-------1-------|
G----0-----------------0-------0------0-----------------0-------0-------| 
D----3-----------------0-------2------3-----------------0-------2-------| 
A----3-----------------2-------0------3-----------------2-------0-------| 
E----x-----------------x-------x------x-----------------x-------x-------| 
Are you drowning your fears 
in a glass of deception? 
When everything is easy than everything will be ok .
When everything is easy than you won't be sad that you stayed.


Chorus
e---x----------------x-------------0--------------| 
B---3----------------3-------------0--------------| 
G---0----------------2-------------1--------------|
D---0----------------0-------------2--------------|
A---2----------------0-------------2--------------| 
E---3----------------2-------------0--------------|

e-------------x-------------x------1--------0-------|
B-------------3-------------3------1--------0-------|
G-------------0-------------2------2--------1-------| 
D-------------0-------------0------3--------2-------| 
A-------------2-------------0------3--------2-------| 
E-------------3-------------2------1--------0-------| 
And time has been spread so thin 
and its just hours till the day begins. 
And the things that are keeping you here are not keeping me here 
and the things that are keeping you here will keep me away.

Bridge 
e--------------0-0-0-0-0-0--1-------------------------0-0-0-0-0-0--1----| 
B--------------1-1-1-1-1-1--1-------------------------1-1-1-1-1-1--1----|
G--------------0-0-0-0-0-0--2-------------------------0-0-0-0-0-0--2----| 
D--------------2-2-2-2-2-2--3-------------------------2-2-2-2-2-2--3----| 
A--------------3-3-3-3-3-3--3-------------------------3-3-3-3-3-3--3----| 
E--------------0-0-0-3-0-3--1-------------------------0-0-0-3-0-3--1----| 

And you'll be sorry 
isn't that what they'll say. 
Don't follow your heart cause it just seems to get in your way.

And don't ever leave here 
and mope at your leisure 
and straighten out your crease here 
and truth is in a tall beer.

Outo: 
e---------0-----------------------------0----------------------|
B------------1----------------------------1---------0-------1--|
G------0-------0------0------0------0------0-------------------|
D----3--------------0------2------3-------------0-------2------|
A--3--------------2------0------3-------------2-------0--------|
E--------------------------------------------------------------|

e------------0--------------------------------------0-------------------------| 
B------------1--1-----------0--------1-------------1--1------------0--------1-| 
G--------0---------0--------0--------0---------0---------0---------0--------0-| 
D-----3------------------0--------2----------3------------------0---------2---| 
A--3------------------2--------0---------3-------------------2---------0------| 
E-----------------------------------------------------------------------------|


Текст, аккорды и табулатура для песни "Drowning", исполняет "Dashboard Confessional".
Используемые в песне аккорды можно найти в разделе Как брать аккорды. Аккорды для шестиструнной гитары. Другие песни можно найти на нашем сайте, воспользовавшись алфавитным указателем вверху страницы.


 
Ошибка в тексте? Выделите ошибку и нажмите Ctrl+Enter