Darling Violetta - Spoiled and Rotten
Tabbed By: Daniel Taylor
EMail: [email protected]


Main Riff (Intro & Verse)

e----------------------------------
B--8---8---8---8---7---7---7---7---
G----9---9---9---9---8---8---8---8-
D----------------------------------
A----------------------------------
E----------------------------------

Cello Intro

e-----------------------------
B-----------------------------
G--9/119-8-----------8-------
D-----------9--9-10-9---10-9--
A-----------------------------
E-----------------------------

I know you feel it 
This is a serious chemistry 
You don't have to believe it 
But the truth will set you free 

Bridge

e----------------------------
B--x-7-x-7-x-7--x-5-x-5-x-5--
G--x-7-x-7-x-7--x-6-x-6-x-6--
D----------------------------
A----------------------------
E----------------------------

You're flashing like white neon 
in my mind and it's alright 

Chorus

G       D
I must be spoiled and rotten 
    Em		  Bm
cause no one else will ever do 
G         D		   Em
Don't you forget I get what I want 
	        F#m  F#
All I want is you 

Main Riff

Bring your strawberry car 
Come to the cabaret in my mind 
The camera's rolling 
The water feels fine 

Bridge

You know I'm half crazy for you 
and there's nothing you can do 

G       D
I must be spoiled and rotten 
    Em		  Bm
cause no one else will ever do 
G         D		   Em
Don't you forget I get what I want 
	        F#m  F#
All I want is you 

Solo / Break

e-----------------7---7------------10-10--12-10----10---------7---7---------
B----7-8------------7---8-10-8-10---------------12----12-10-----7----8-10-8-
G--9-----9-7----------------------------------------------------------------
D------------9--9-------------------------------------------9---------------
A---------------------------------------------------------------------------
E---------------------------------------------------------------------------

e----------------
B--10-12-16~~~~~-
G----------------
D----------------
A----------------
E----------------

Red rubies daffodils 
Gentle breezes and windowsills 
Starlight silver radiation 
inside my mental television 
An acid metamorphosis 
An altered state of consciousness 
Candy mansions of the soul 
No compromises turn to gold 

G       D
I must be spoiled and rotten 
    Em		  Bm
cause no one else will ever do 
G         D		   Em
Don't you forget I get what I want 
	        F#m  F#
All I want is you 

La la la… (chorus chords & melody)

Don't you forget I get what I want 
All I want is you 

La la la…

That is the work of my friend Richard Ward.


Текст, аккорды и табулатура для песни "Spoiled And Rotten", исполняет "Darling Violetta".
Используемые в песне аккорды можно найти в разделе Как брать аккорды. Аккорды для шестиструнной гитары. Другие песни можно найти на нашем сайте, воспользовавшись алфавитным указателем вверху страницы.


Слушать онлайн Spoiled & Rotten


Darling ViolettaSpoiled & Rotten на Яндекс.Музыке


 
Ошибка в тексте? Выделите ошибку и нажмите Ctrl+Enter