this is a wicked radiohead cover that's really cool because the darkness took this song 
really made it their own.

tuning-standard-EADGB

h= hammer on
p=pull off
b=full note bend
bh=half note bend
bb=bend and bend back (half note)
bf=bend and bend back (full note)
^=2 full note bend (only plucking the string once)
v=vibrato
/=slide up
=slide down

intro

1-------------------------------------------------|
2-------------------------------------------------|
3-------------------------------------------------|
4-------------------------------------------------|
5-0000-19-00-17-00-19-00-15-00-17-00-14107/10---|
6-------------------------------------------------|

verse 1

1-------------------------------------------------|
2-------------------------------------------------|
3-------------------------------------------------|
4-------------------------------------------------|  x4
5-0000-19-00-17-00-19-00-15-00-17-00-14107/10---|
6-------------------------------------------------|

1---------------------------|
2---------------------------|
3---------------------------|
4---------------------------| x2
5---5-3-2bb-----------------|
6-0-------------------------|

1-------------------------------------------------|
2-------------------------------------------------|
3-------------------------------------------------|
4-------------------------------------------------| x2
5-0000-19-00-17-00-19-00-15-00-17-00-14107/10---|
6-------------------------------------------------|

Chorus

1-------------------------------------------------|
2-------------------------------------------------|
3-5-----------------------------------------------|
4-5(x16)-2------7-----9-7-5-----------------------|
5-3------2(x16)-7(x25)-----7-5-7-----------------|
6--------0------5---------------------------------|

Solo 1

1-------------------------------------------------|
2-------------------------------------------------| slowly bend at the end.
3--911-12-13-14-15-16-17-18-19-20-21-22-----------|
4--x-x--x--x--x--x--x--x--x--x--x--x--x-----------| don't stop struming.
5--7-9-10-11-12-13-14-15-16-17-18-19-20-----------|
6-------------------------------------------------|struming paturn not shown

verse 2

1---------------------------------------------------------------------|
2---------------------------------------------------------------------|
3------------------------------------------------------------------8--|
4---------------------------------8--------------------------------8--| x2
5------7--------7--------7--------8------7--------7--------7-------6--|
6-5555-5-555555-5-555555-5-555555-6-5555-5-555555-5-555555-5-555555---|

1---------------------------|
2---------------------------|
3---------------------------|
4---------------------------| x2
5---5-3-2bb-----------------|
6-0-------------------------|

1---------------------------------------------------------------------|
2---------------------------------------------------------------------|
3------------------------------------------------------------------8--|
4---------------------------------8--------------------------------8--|
5------7--------7--------7--------8------7--------7--------7-------6--|
6-5555-5-555555-5-555555-5-555555-6-5555-5-555555-5-555555-5-555555---|

Chorus

1-------------------------------------------------|
2-------------------------------------------------|
3-5-----------------------------------------------|
4-5(x16)-2------7-----9-7-5-----------------------|
5-3------2(x16)-7(x25)-----7-5-7-----------------|
6--------0------5---------------------------------|

Bridge

1---0---0---0--------------|
2-----3---1---0------------|
3----2-2-2-2-2-2-2---------| x4
4--2------------2----------|
5-0------------------------|
6--------------------------|

Solo 2 (use C-E-A-A reapeated as rythm)

1-------------------------------8-8----------------|
2-------------------8p5-8b-8-8bf--8bf--------------|
3-5v-7p5h7p5-7bf-9p7-------------------------------|
4--------------------------------------------------|
5--------------------------------------------------|
6--------------------------------------------------|

1--------------------------------------------------|
2-8p5----------------------------------------------| do some random slides
3----7p5p4h5p4h5h7p5-------------------------------| and scrapes to after to
4-------------------7p5----------------------------| make it sound cool
5----------------------5p3p2-33-7-22-3-0-----------|
6--------------------------------------------------|


1--------15--17-17bf-15-15-19p17h19p17p15-------------|
2-15^-15b--15----------------------------19p17p15h17--|
3-----------------------------------------------------|
4-----------------------------------------------------|
5-----------------------------------------------------|
6-----------------------------------------------------|

1---------------------------15-17-20bf---15^-13b-12bh-10b--|
2-13h15h17h19p17p15p13h15p13----------15b------------------|
3----------------------------------------------------------|
4----------------------------------------------------------|
5----------------------------------------------------------|
6----------------------------------------------------------|

Chorus

end on 1----
       2----
       3----
       4-7--
       5-7--
       6-5--


thanx for reading my tab PLEASE rate it, i wanted to know how it is and i busted my ass 
this. so give me some feedback thanx.


Текст, аккорды и табулатура для песни "Street Spirit", исполняет "Darkness".
Используемые в песне аккорды можно найти в разделе Как брать аккорды. Аккорды для шестиструнной гитары. Другие песни можно найти на нашем сайте, воспользовавшись алфавитным указателем вверху страницы.


 
Ошибка в тексте? Выделите ошибку и нажмите Ctrl+Enter