tuning low to high - e, a, d, g, b, e

intro guitar 1
  h h     p p         h h     p p         h h     p p       
|------------------------------------------------------------0-----0---------
|--------------------------0----------------------------------0-----0--------
|------0---------------------------------------0---------------3-3---3-4(4.5)
|--------------------0^2^4---4^2^0-2-----------------------------------------
|0^2^4---4^2^0-2---------------------0-0-0^2^4---4^2^0-2---------------------
|----------------0-0-------------------------------------0-0-----------------

then both guitars
|----------------------------|           |---|
|----------------------------|           |---|
|-----7----------------------|           |---|
|-----7----------------------|   x2      |-2-|
|-2-2-5-2--8-5-7-7-5-7--8-5--|  end on   |-2-| let ring through first
|-0-0---0--6-3-5-5-3-5--6-3--|           |-0-| beginning of verse

verse guitar 1
   h h      p p  
|-------------------------------------------------------------------
|--------------------3----------------------------------------------
|-------2------------2-------11--------------7----------------------
|--------------------0--0-/9-----4^2^0-------7----------------------
|-0^2^4----4^2^0-2---------------------0-2-2-5-2--8-5-7-7-5-7--8-5--
|------------------0---------------------0-0---0--6-3-5-5-3-5--6-3--

|----------------------------------------------------------------------3-
|-----------------------3-3-3-3-----3-----3-----3---3(3.5)-3-0---------3-
|-----7-----------------2-2-2-2-----2-----2-----2--------------2-0---0-0-
|-----7-----------------0-0-0-0-----0-----0-----0------------------2-----
|-2-2-5-2--8-5-7-7-5-7----------0-0---0-0---0-0---0----------------------
|-0-0---0--6-3-5-5-3-5---------------------------------------------------

|-----3-----3-----3---3-3-3-3------2-----2-----2---------3-----2-
|-----3-----3-----3---3-3-3-3------3-----3-----3---------3-----3-
|-----0-----0-----0---0-0-0-0------0-----0-----0---------0-----2-
|-0-0---0-0---0-0---0--------------------------------0---0-----0-
|------------------------------0-0---0-0---0-0---0-0---0-------0-
|--------------------------------------------------------3-------

bit before chorus
                      h
|----7----9-------11------12-|
|-/5---/7------/9----9^10----|
|----------------------------|
|----------------------------|
|----------------------------|
|----------------------------|

chorus
|-------------------------------------------------------------
|-------------------------------------------------------------
|--7--------------7--------------7----------------------------
|--7--------------7--------------7----------------------------
|--5-2--2--2-5-2--5-2--2--2-5-2--5--2--2--2-5-2---------------
|----0--0--0-3-0----0--0--0-3-0-----0--0--0-3-0--3-2-0-3-2-0--

|---------------------------------------------------------------|
|---------------------------------------------------------------|
|--7--------------7--------------7----------------------------2-|
|--7--------------7--------------7----------------------------2-|
|--5-2--2--2-5-2--5-2--2--2-5-2--5--2--2--2-5-2---------------0-|
|----0--0--0-3-0----0--0--0-3-0-----0--0--0-3-0--3-2-0-3-2-0----|

backing to solo 1 / verse 2
|------------------------------
|------------------------------
|-9-9-7-9----------------------
|-9-9-7-9--8--5--7-7-5-7--8--5-
|-7-7-5-7--8--5--7-7-5-7--8--5-
|----------6--3--5-5-3-5--6--3-

/=slide up
=slide down
h=hammer on
p=pull off
noets in ()= bend previously played note to point in ()

sorry but i havnt worked out the solos yet. i got bits but nuffin worth
puttin on here yet but will do wen i dun more.
any comments or questions email me [email protected]


Текст, аккорды и табулатура для песни "Love On The Rocks With No Ice", исполняет "Darkness".
Используемые в песне аккорды можно найти в разделе Как брать аккорды. Аккорды для шестиструнной гитары. Другие песни можно найти на нашем сайте, воспользовавшись алфавитным указателем вверху страницы.


 
Ошибка в тексте? Выделите ошибку и нажмите Ctrl+Enter