Tabbed by: Wiggz
Not 100% sure about this tab but was bored and it sounds ok to me.
Tuning: Dadgbe (drop D)
Song is in standard tuning but i tabbed it for drop D

e|-------------------------------------------------------------------------|
B|--------------------------0----------------------------------------------|
G|-------0-------------------------------------0---------------------------|
D|--------------------0h2h4---4p2p0-2--------------------------------------|
A|-0h2h4---4p2p0-2--------------------0--0h2h4----4p2p0-2------------------|
D|-----------------2--------------------------------------2----------------|

e|--0-------------------0--------------------------------------------------|
B|----0-0-----------------0-0----------------------------------------------|
G|--------3-3-----------------4-4^-----------------------------------------|
D|-------------------------------------------------------------------------|
A|-------------------------------------------------------------------------|
D|-------------------------------------------------------------------------|

e|------0----------------------------------------------------------------|
B|------3----------------------------------------------------------------|
G|------2----------------------------------------------------------------|x2
D|-2-2--0--2-----8-7-5--5--77-5-7--8-7-5---------------------------------|
A|-2-2-----2-----8-7-5--5--77-5-7--8-7-5---------------------------------|
D|-2-2-----2-----8-7-5--5--77-5-7--8-7-5---------------------------------|

  Let ring -----|
e|----------------------------------------0--------------------------------|
B|----------------------------------------0--------------------------------|
G|-------------------------2--------------0-------------7~-----------------|
D|-2--------------0--2--4-------4--2--0---2-------6-7-8--------------------|
A|-2--------------------------------------2--------------------------------|
D|-2--------------------------------------2--------------------------------|

e|------0----------------------------------------------------------------|
B|------3----------------------------------------------------------------|
G|------2----------------------------------------------------------------|x2
D|-2-2--0--2-----8-7-5--5--77-5-7--8-------------------------------------|
A|-2-2-----2-----8-7-5--5--77-5-7--8-------------------------------------|
D|-2-2-----2-----8-7-5--5--77-5-7--8-------------------------------------|

Not positive this is right but sounds ok :)
e|-------------------------------------------------------------------------|
B|----------------------------5--------------------------------------------|
G|----------------------------5--------------------------------------------|
D|-2222222222222222222------333--------------------------------------------|
A|-2222222222222222222------333--------------------------------------------|
D|-2222222222222222222------333--------------------------------------------|

Still working out chorus and solo but heres the riff after chorus

e|-----------------------------------------------------------------------|
B|-----------------------------------------------------------------------|
G|--99--7-9--------------------------------------------------------------|x4
D|--99--7-9--8-7-5--5-77-5-7--8-7-5--------------------------------------|
A|--77--5-7--8-7-5--5-77-5-7--8-7-5--------------------------------------|
D|-----------8-7-5--5-77-5-7--8-7-5--------------------------------------|



| /  slide up
|   slide down
| h  hammer-on
| p  pull-off
| ~  vibrato
| +  harmonic
| x  Mute note
============================================================================


Текст, аккорды и табулатура для песни "Love On The Rocks With No Ice", исполняет "Darkness".
Используемые в песне аккорды можно найти в разделе Как брать аккорды. Аккорды для шестиструнной гитары. Другие песни можно найти на нашем сайте, воспользовавшись алфавитным указателем вверху страницы.


 
Ошибка в тексте? Выделите ошибку и нажмите Ctrl+Enter