L O V E  I S  O N L Y  A  F E E L I N G |
                                        | 
Artist: The Darkness                    |
Album: Permission To Land               |
                                        |
Tabbed By: dave laidlaw                 |
Email: [email protected]                 |
Website: www.tabacana.tk                |
________________________________________|

KEY: p = Pull-Off
     / = Slide Up
     b = Bend
     r = Release Bend
    PM = Palm Mute
     h = Hammer-On



Intro Fig.1
Guitar 1
1-|---------------------------------|
2-|---------------------------------|
3-|-----7---2-----------7---2--2-2--|
4-|-5---7---2--4-5--5---7---2--2-2--|
5-|-5---5---0--4-5--5---5---0--0-0--| x2
6-|-3----------2-3--3---------------|

Guitar 2
1-|-----------------------------------------------------
2-|-12--12-12-12-12p10--10-10-10------------------------
3-|------------------------------7-/9--11-9----------12-
4-|-----------------------------------------12----10----
5-|--------------------------------------------12-------
6-|-----------------------------------------------------

-------17-------------17-------17---------17----17-----
-17b19----19r17-17b19----17b19----17-15------14----12--
-------------------------------------------------------
-------------------------------------------------------
-------------------------------------------------------
-------------------------------------------------------

-----------------------------------10-12--12b14-12p10----
-10----12--12-12-12-12p10-10-10-10--------------------12-
----11---------------------------------------------------
---------------------------------------------------------
---------------------------------------------------------
---------------------------------------------------------

-19-19-19--17-17-17--15-15-15--14-14-14--------|
-19-19-19--17-17-17--15-15-15--14-14-14-15/17--|
----------------------------------------12/14--|
-----------------------------------------------|
-----------------------------------------------|
-----------------------------------------------|


Verse Fig.2
G - D - A - F# G - - - D - A - - - x2


Bridge Fig.3
1-|----------------------------------------------------
2-|----------------------------------------------------
3-|----------------------------------------------------
4-|----------------------------------------------------
5-|-2--2-2-2--2-2-2--2-2-2--2-2-7--7-7-7--7-7-7--7-7-7-
6-|-0--0-0-0--0-0-0--0-0-0--0-0-5--5-5-5--5-5-5--5-5-5-
   PM  . . .  . . .  . . .  . . .  . . .  . . .  . . .

---------------------------------|
---------------------------------|
---------------------------------|
-------------------7--7-7-7--7-7-|
-7-7-2--2-2-2--2-2-5--5-5-5--5-5-|
-5-5-0--0-0-0--0-0---------------|
 PM. .  . . .  . . .  . . .  . .


Chorus Fig.4
Guitar 1
1-|-------------------------------------------------------|
2-|-------------------------------------------------------|
3-|-4-------7---2---4-------7---2-----4-------7---2-------|
4-|-4---5---7---2---4---5---7---2--2--4---5---7---2---5---|
5-|-2---5---5---0---2---5---5---0--2--2---5---5---0---5---|
6-|-----3---------------3----------0------3-----------3---|


Guitar 2
1-|----12----|
2-|-10----10-|
3-|----------|
4-|----------|
5-|----------| x8
6-|----------|


Break Fig.5
1-|-------------------------------------------------|
2-|-------------------------------------------------|
3-|-12-12-12-11-11-11-12-12-12-11-11-11-11-11-11h12-|
4-|-------------------------------------------------|
5-|-------------------------------------------------|
6-|-------------------------------------------------|
       PM .     PM .     PM .     PM .     PM


After 2nd Chorus Fig.6
1-|----------------------------------------------------
2-|----------------------------------------------------
3-|----------------------------------------------------
4-|----------------------------------------------------
5-|-5--5-5-5--5-5-5--5-5-5--5-5-7--7-7-7--7-7-7--7-7-7-
6-|-3--3-3-3--3-3-3--3-3-3--3-3-5--5-5-5--5-5-5--5-5-5-
    PM . . .  . . .  . . .  . . .  . . .  . . .  . . .

--------------------------------------------------------
--------------------------------------------------------
--------------------------------------------------------
---------------------------------6--6-6-6--6-6-9--9-9-9-
-7-7-9--9-9-9--9-9-9--9-9-9--9-9-4--4-4-4--4-4-7--7-7-7-
-5-5-7--7-7-7--7-7-7--7-7-7--7-7------------------------
 PM. .  . . .  . . .  . . .  . . .  . . .  . . .  . . .

-----|
-----|
-----|
-9-9-|
-7-7-|
-----|
 PM.


I dont know about the other solos! Sorry!


Текст, аккорды и табулатура для песни "Love Is Only A Feeling", исполняет "Darkness".
Используемые в песне аккорды можно найти в разделе Как брать аккорды. Аккорды для шестиструнной гитары. Другие песни можно найти на нашем сайте, воспользовавшись алфавитным указателем вверху страницы.


 
Ошибка в тексте? Выделите ошибку и нажмите Ctrl+Enter