#---------------------------------PLEASE NOTE----------------------------------#
#This file is the author's own work and represents their interpretation of the #
#song. You may only use this file for private study, scholarship, or research. #
#------------------------------------------------------------------------------#

Title: I Believe in a Thing Called Love
Artist: The Darkness
Album: 

Instrument: 6 String Guitar

Tabbed by: Trevor Kelba ([email protected])

Tuning: Standard (E A D G B E)

Heres the whole song
Partial Lyrics are ******UNDERNEATH***** some bars so you know where in the song you are. 

b-bend
pb-prebend
h-hammeron
p-pulloff
br-bend and release
rpb-release prebend
brb-bend/release/bend
*****Those are all the finger effects you need to do the solo(s)****

Intro: x4
E|----------------------||-----------------------------------------||
B|----------------------||-----------------------------------------||
G|----------------------||-----------------------------------------||
D|-----x--x--2---4--4---||-4-4--------4---4--2--2------------------||
A|--2--x--x--0---2--2---||-2-2--2--2--2---2--0--0------0--2--4-----||
E|--0--x--x-------------||------0--0-----------------4---------0---||

Then on the fifth play this:

E|----------------------||--------------------------------------------||
B|----------------------||--------------------------------------------||
G|----------------------||--------------------------------------------||
D|-----x--x--2---4--4---||-4-4--------4---4--2--2---------------------||
A|--2--x--x--0---2--2---||-2-2--2--2--2---2--0--0------0--------------||
E|--0--x--x-------------||------0--0----------------4------4---2---0--||

Then:

(its easier on the first two parts played here if you make and E for the 
strumming) 


E|---0------------------------------||
B|---0------------------------------||
G|---1------------------------------||   x 2
D|-2---2---4--4-4-4-4-4-4-4-4-4-4-4-||
A|-2---2---4--4-4-4-4-4-4-4-4-4-4-4-||
E|-0---0---2--2-2-2-2-2-2-2-2-2-2-2-||

Touching You.....

E|---0--------0----------------------|---------------------------------||
B|---0--------0----------------------|---------------------------------||
G|---1-------------------------------|---------------------------------||   
D|-2---2------------2-------3--------|-4-4-4-4-4-4-4-4-4-4-4-4-4-4-----||
A|-2---2---4-----4--0-------1--------|-2-2-2-2-2-2-2-2-2-2-2-2-2-2-----||
E|-0---0---2-----2-------------------|------------------------------7-||

Chorus:


E|-----------------------||---------------||
B|-----------------------||---------------||
G|-----------------------||---------------||
D|----------2------------||------4--6--4--||   x 3
A|----------0---------4--||---0--2--4--2--||
E|-0--2--4-----4---0--2--||-4-------------||

I Believe in a thing called love......

E|----------------------||
B|----------------------||
G|----------------------||
D|--6--6--6--4--6---7---||
A|--4--4--4--2--4---5---||
E|----------------------||

SOLO #1!!!

E|-----------------------||--16bnr-----------||
B|-----17------17--------||---------17-------||
G|-16b----pb16----rpb16--||------------16----||
D|-----------------------||------------------||
A|-----------------------||------------------||
E|-----------------------||------------------||

E|---------------------||-------------||
B|---------------------||-----15b-----||
G|-13bnr---------------||-------------||
D|----------14---------||-------------||
A|---------------------||-------------||
E|---------------------||-------------||

Then it is just bass for 2 bars and does this (2 times):


E|------------------------------------||
B|------------------------------------||
G|------------------------------------||
D|--------4--4--2--2------------------||   (then bass for 2 bars and 
A|--2-----2--2--0--0------0--2--4-----||     repeat)
E|--0-------------------4----------0--||

And to this again:

E|---0------------------------------||
B|---0------------------------------||
G|---1------------------------------||   x 2
D|-2---2---4--4-4-4-4-4-4-4-4-4-4-4-||
A|-2---2---4--4-4-4-4-4-4-4-4-4-4-4-||
E|-0---0---2--2-2-2-2-2-2-2-2-2-2-2-||

Touching You.....

E|---0--------0----------------------|---------------------------------||
B|---0--------0----------------------|---------------------------------||
G|---1-------------------------------|---------------------------------||   
D|-2---2------------2-------3--------|-4-4-4-4-4-4-4-4-4-4-4-4-4-4-----||
A|-2---2---4-----4--0-------1--------|-2-2-2-2-2-2-2-2-2-2-2-2-2-2-----||
E|-0---0---2-----2-------------------|------------------------------7-||

Chorus:


E|-----------------------||---------------||
B|-----------------------||---------------||
G|-----------------------||---------------||
D|----------2------------||------4--6--4--||   x 3
A|----------0---------4--||---0--2--4--2--||
E|-0--2--4-----4---0--2--||-4-------------||

I Believe in a thing called love......

E|----------------------||
B|----------------------||
G|----------------------||
D|--6--6--6--4--6---7---||
A|--4--4--4--2--4---5---||
E|----------------------||


SOLO #2!!!

E|-0--0--0--0--0--0--0------||--7-------7---------------||
B|-5--5--5--5--5--5--5--7b--||-----pb7-----rpb7--5---7--||
G|--------------------------||--------------------------||
D|--------------------------||--------------------------||
A|--------------------------||--------------------------||
E|--------------------------||--------------------------||

E|-0--0--0--0---||-----------------||
B|-5--4--2--0---||-----------------||
G|----------4---||--1---2---4--4---||
D|--------------||-----------------||
A|--------------||-----------------||
E|--------------||-----------------||


E|----------------------||--------------------------||
B|----------------------||--------------------------||
G|--6--6--6--4--2-------||--2h4--4--4---6--4--2--2--||
D|-----------------4----||--------------------------||
A|----------------------||--------------------------||
E|----------------------||--------------------------||


E|--0----0--------||--------------||
B|--5----0---0----||--------------||
G|-----------1----||--1--2--4--4--||
D|----------------||--------------||
A|----------------||--------------||
E|----------------||--------------||


E|-------------------------||--9-----------9----------||
B|--10-----10--10-----9----||------9---9--------------||
G|--13b----13b-13b---11b---||---------11b------pbr11--||
D|-------------------------||-------------------------||
A|-------------------------||-------------------------||
E|-------------------------||-------------------------||

(played quickly)
E|-9-------9-------------------------------||
B|---12p9----12p9--------------------------||
G|-----------------11--9---11p9-----9---9--||
D|------------------------------11---------||
A|-----------------------------------------||
E|-----------------------------------------||


E|--------------------||--------------------------------------||
B|--------------------||--------------------------------------||
G|--11--9------9------||----------------------------9---------||
D|---------11------11-||------------9--------9--11-----11-----||
A|--------------------||-(9)11--11-----11---------------------||
E|--------------------||--------------------------------------||

E|------------------------------||-----------------------||
B|--------9------9------9-------||----9---10--12--12-----||
G|--------9------9------9-------||----9---11--13--13-----||
D|-9--11-----11-----11------11--||-----------------------||
A|------------------------------||-----------------------||
E|------------------------------||-----------------------||

After the solo ot goes back into this:

E|---0------------------------------||
B|---0------------------------------||
G|---1------------------------------||   x 2
D|-2---2---4--4-4-4-4-4-4-4-4-4-4-4-||
A|-2---2---4--4-4-4-4-4-4-4-4-4-4-4-||
E|-0---0---2--2-2-2-2-2-2-2-2-2-2-2-||

Touching You.....

E|---0--------0----------------------|---------------------------------||
B|---0--------0----------------------|---------------------------------||
G|---1-------------------------------|---------------------------------||   
D|-2---2------------2-------3--------|-4-4-4-4-4-4-4-4-4-4-4-4-4-4-----||
A|-2---2---4-----4--0-------1--------|-2-2-2-2-2-2-2-2-2-2-2-2-2-2-----||
E|-0---0---2-----2-------------------|------------------------------7-||

Then:


E|------------------------------||
B|------------------9--9---7----||
G|---9----8-----8---9--9---9----||   x 2
D|---9----9-----9---------------||
A|------------------------------||
E|------------------------------||

back to:

E|----------------------||
B|----------------------||
G|----------------------||
D|--6--6--6--4--6---7---||
A|--4--4--4--2--4---5---||
E|----------------------||

and then the 3rd solo:

E|----------12--------------------------------||
B|--15brb-----15-12----12---------------------||
G|------------------15----15-14-12-14b-x-12---||
D|--------------------------------------------||
A|--------------------------------------------||
E|--------------------------------------------||

E|---------------------------------------------------------------||
B|---------------------------------------------------------------||
G|-----------12b----------12b------------------------------------||
D|--14-12-14-----14-12-14-----14-13-12---------------------------||
A|-------------------------------------14-13-12---10b------------||
E|-----------------------------------------------------12-10-12--||


E|-4-0-0-5-0-0-7-0-0-9-0-0-7-0-9-0-11-0-9-0-11-0-12-0-14-0-12-0--||
B|---------------------------------------------------------------||
G|---------------------------------------------------------------||
D|---------------------------------------------------------------||
A|---------------------------------------------------------------||
E|---------------------------------------------------------------||

E|-14-0-16-0-17-0-0-16-0-0-19-0-0-16-0-0-17-0-16-0-17-0-18-0-0---||
B|---------------------------------------------------------------||
G|---------------------------------------------------------------||
D|---------------------------------------------------------------||
A|---------------------------------------------------------------||
E|---------------------------------------------------------------||

E|---20b------||
B|------------||
G|------------||
D|------------||
A|------------||
E|------------||

then:

E|-----------------------||---------------||
B|-----------------------||---------------||
G|-----------------------||---------------||
D|----------2------------||------4--6--4--||   x 4
A|----------0---------4--||---0--2--4--2--||
E|-0--2--4-----4---0--2--||-4-------------||

And outro:



E|--------------------------------------------------------------0----||
B|-----15b--12h15p12p11h14p11p10h13p10p9h12p9p8h11p8p7h10p7/17--0----||
G|-------------------------------------------------------------------||
D|--2----------------------------------------------------------------||
A|--2----------------------------------------------------------------||
E|--0----------------------------------------------------------------||


E|----------||
B|----------||
G|----------||
D|--2-------||
A|--2-------||


Текст, аккорды и табулатура для песни "I Believe In A Thing Called Love (ver 13)", исполняет "Darkness".
Используемые в песне аккорды можно найти в разделе Как брать аккорды. Аккорды для шестиструнной гитары. Другие песни можно найти на нашем сайте, воспользовавшись алфавитным указателем вверху страницы.


 
Ошибка в тексте? Выделите ошибку и нажмите Ctrl+Enter