I BELIEVE IN A THING CALLED LOVE
As recorded by The Darkness
(From the 2003 Album PERMISSION TO LAND)


Transcribed by Victor Ochoa
 


 Intro
  Q=126
  F#5    A5    B5             E5       B5     A5
 4/4
  Gtr I
                                                     ~
|----------------|--------------|---------------|----------------|
|----------------|--------------|---------------|----------------|
|----------------|--------------|---------------|----------------|
|--------2-(2)-4-|-4----x-4-4---|------4-4--x-2-|-2--------------|
|-4----x-0-(0)-2-|-2----x-2-2-2-|-2--x-2-2--x-0-|-0-----0-2-4----|
|-2----x---------|------------0-|-0--x----------|----4--------0--|


  F#5    A5    B5             E5       B5     A5
  Gtr I
                                                     ~
|----------------|--------------|---------------|----------------|
|----------------|--------------|---------------|----------------|
|----------------|--------------|---------------|----------------|
|--------2-(2)-4-|-4----x-4-4---|------4-4--x-2-|-2--------------|
|-4----x-0-(0)-2-|-2----x-2-2-2-|-2--x-2-2--x-0-|-0-----0-2-4----|
|-2----x---------|------------0-|-0--x----------|----4--------0--|
|
| Gtr II
|----------------|------------0-|-0-------------|----------------|
|--------2-----4-|-4------4---0-|-0----4-4----2-|-2--------------|
|--------2-----4-|-4------4---1-|-1----4-4----2-|-2--------------|
|-4------2-----4-|-4------4---2-|-2----4-4----2-|-2--------------|
|-4------0-----2-|-2------2---2-|-2----2-2----0-|-0--------------|
|-2--------------|------------0-|-0-------------|----------------|


 Verse
  F#5    A5    B5             E5       B5     A5
                                                     ~
|----------------|--------------|---------------|----------------|
|----------------|--------------|---------------|----------------|
|----------------|--------------|---------------|----------------|
|--------2-(2)-4-|-4----x-4-4---|------4-4--x-2-|-2--------------|
|-4----x-0-(0)-2-|-2----x-2-2-2-|-2--x-2-2--x-0-|-0-----0-2-4----|
|-2----x---------|------------0-|-0--x----------|----4--------0--|
|
|----------------|------------0-|-0-------------|----------------|
|--------2-----4-|-4------4---0-|-0----4-4----2-|-2--------------|
|--------2-----4-|-4------4---1-|-1----4-4----2-|-2--------------|
|-4------2-----4-|-4------4---2-|-2----4-4----2-|-2--------------|
|-4------0-----2-|-2------2---2-|-2----2-2----0-|-0--------------|
|-2--------------|------------0-|-0-------------|----------------|


  F#5    A5  B5             E5       B5     A5
                                                   ~
|--------------|--------------|---------------|----------------||
|--------------|--------------|---------------|----------------||
|--------2-x-4-|-4----x-4-4---|------4-4--x-2-|-2--------------||
|-4----x-2-x-4-|-4----x-4-4-2-|-2--x-4-4--x-2-|-2--------------||
|-4----x-0-x-2-|-2----x-2-2-2-|-2--x-2-2--x-0-|-0--------------||
|-2----x-------|------------0-|-0--x----------|----4--5-4-2-0--||
|
|--------------|------------0-|-0-------------|----------------||
|--------2---4-|-4------4---0-|-0----4-4----2-|-2--------------||
|--------2---4-|-4------4---1-|-1----4-4----2-|-2--------------||
|-4------2---4-|-4------4---2-|-2----4-4----2-|-2--------------||
|-4------0---2-|-2------2---2-|-2----2-2----0-|-0--------------||
|-2------------|------------0-|-0-------------|----------------||


   Pre-Chorus
    $
    E    F#5
    Gtrs I, II
            PM--------------------|
||--0-------------|------------------||
||o-0-------------|-----------------o||
||--1-------------|------------------||
||--2----4--------|------------------||
||o-2----4--4-4-4-|-4-4-4-4-4-4-4-4-o||
||--0--0-2--2-2-2-|-2-2-2-2-2-2-2-2--||


  E    F#5        A5  A#5        B5
          PM--|                  PM------------|
|-0-------------|--------------|-----------------|
|-0-------------|--------------|-----------------|
|-1-------------|--------------|-----------------|
|-2----4--------|-7---8----(8)-|-----------------|
|-2----4--4-4-4-|-7---8----(8)-|-9-9-9-9-9-9-9-9-|
|-0--0-2--2-2-2-|-5---6----(6)-|-7-7-7-7-7-7-7-7-|


                       Chorus
                        E     A      F#m         B5 C#B5
                        Gtr I
                        PM--|    PM|         PM|
                                                          3x
|-------------------||-----------------|------------------||
|-------------------||o----------------|-----------------o||
|-------------------||-----------------|------------------||
|-------------------||--------2--------|---------4--6-4---||
|-9-9-9-9-9-(9)-----||o-------0------4-|-(4)---0-2--4-2--o||
|-7-7-7-7-7-(7)-7--||--0-2-4----4-0-2-|-(2)-4------------||
|
| Gtr II
|                                                         3x
|-------------------||-----------------|------------------||
|-------------------||o-------2--------|-----------------o||
|-------------------||--1-----2------2-|-(2)-----4--6-4---||
|-------------------||--2-----2------4-|-(4)-----4--6-4---||
|-------------------||o-2-----0------4-|-(4)-----2--4-2--o||
|-------------------||--0------------2-|-(2)--------------||


                                 Guitar Solo 1
                        To Coda
  C#5     B5C#D5                  F#5              A5      B5
  Gtr I                         Gtr III
                                                            ~~~
|---------------|---------------|-12------12----12------------|
|---------------|---------------|-12b14======12----12r(12)-12-|
|---------------|---------------|-----------------------------|
|-6--6--6-4S6-7-|-(7)--7--------|-----------------------------|
|-4--4--4-2S4-5-|-(5)--5---5-5--|-----------------------------|
|---------------|---------------|-----------------------------|
|
|                               Gtr I
|---------------|---------------|-----------------------------|
|---------------|---------------|-----------------------------|
|---------------|---------------|-----------------------------|
|---------------|---------------|-----------------------------|
|---------------|---------------|-----------------------------|
|---------------|---------------|-----------------------------|
|
| Gtr II
|---------------|---------------|-----------------------------|
|-------------7-|-(7)--7---7-7--|-----------------------------|
|-6--6--6-4S6-7-|-(7)--7---7-7--|-------------------2---x---4-|
|-6--6--6-4S6-7-|-(7)--7---7-7--|--4-------------x--2---x---4-|
|-4--4--4-2S4-5-|-(5)--5---5-5--|--4-------------x--0---x---2-|
|---------------|---------------|--2-------------x------------|


                                E5
 ~~~~~~~~~~~~
|------------16-(16)b17r(16)--------|
|-(12)--(12)-----------------17-----|
|-------------------------------16--|
|-----------------------------------|
|-----------------------------------|
|-----------------------------------|
|
|------------19-(19)b20r(19)--------|
|----------------------------21-----|
|-------------------------------21--|
|-----------------------------------|
|-----------------------------------|
|-----------------------------------|
|
|-----------------------------------|
|-----------------------------------|
|---4-------------x-------4---4-----|
|---4-------------x-------4---4--2--|
|---2-------------x-------2---2--2--|
|--------------------------------0--|


  E5              B5         A5
                   ~~~~~~~                          ~~~~
|------------------------------|-------------------------||
|------------------------------|-------14b17------(14)---||
|-13-(13)b14r(13)--------------|-------------------------||
|-----------------14-(14)------|-(14)--------------------||
|------------------------------|-------------------------||
|------------------------------|-------------------------||
|
|                  ~~~~~~~
|------------------------------|-------------------------||
|------------------------------|-------------------------||
|-16-(16)b17r(16)--------------|-------------------------||
|-----------------18-(18)------|-------------------------||
|------------------------------|-------------------------||
|------------------------------|-------------------------||
|
|                                       ~~~~~
|------------------------------|-------------------------||
|------------------------------|-------------------------||
|------------------4---4---x-2-|---2---------------------||
|--2-----------x---4---4---x-2-|---2---------------------||
|--2-----------x---2---2---x-0-|---0----------0-2---4----||
|--0-----------x---------------|--------4--------------0-||


 Verse
  F#5                   E5   B5     A5
  Gtr I
                                           ~
|-----------|---------|---------------|----------------|
|-----------|---------|---------------|----------------|
|-----------|---------|------4-4--x-2-|-2--------------|
|-----------|---------|-2--x-4-4--x-2-|-2--------------|
|-4--------|---------|-2--x-2-2--x-0-|-0-----0-2-4----|
|-2--------|---------|-0--x----------|----4--------0--|
|
| Gtr II
|-----------|---------|-0-----------0-|-0--------------|
|-----------|---------|-0----4-4----2-|-2--------------|
|-----------|---------|-1----4-4----2-|-2--------------|
|-----------|---------|-2----4-4----2-|-2--------------|
|-4--------|---------|-2----2-2----0-|-0--------------|
|-2--------|---------|-0-------------|----------------|


                                          D.S. al Coda
  F#5                   E5   B5     A5
  Gtr I
                                           ~
|-----------|---------|---------------|----------------|
|-----------|---------|---------------|----------------|
|-----------|---------|---------------|----------------|
|-----------|---------|------4-4--x-2-|-2--------------|
|-4--------|---------|-2--x-2-2--x-0-|-0--------------|
|-2--------|---------|-0--x----------|----4--5-4-2-0--|
|
| Gtr II
|-----------|---------|-0-------------|----------------|
|-----------|---------|-0----4-4----2-|-2--------------|
|-----------|---------|-1----4-4----2-|-2--------------|
|-----------|---------|-2----4-4----2-|-2--------------|
|-4--------|---------|-2----2-2----0-|-0--------------|
|-2--------|---------|-0-------------|----------------|


 Guitar Solo 2
  &
  F#5       A5  B5                       E5
  Gtr III
|-0-0-0-0-0-0-0-7----|-(7)-7---7-----------|
|-5-5-5-5-5-5-5-7b9==|=(7)---7---7r(7)-5-7-|
|--------------------|---------------------|
|--------------------|---------------------|
|--------------------|---------------------|
|--------------------|---------------------|
|
| Gtr I
|--------------------|---------------------|
|--------------------|---------------------|
|-----------2-x-4----|--4--------x--4--4---|
|-4-------x-2-x-4----|--4--------x--4--4-2-|
|-4-------x-0-x-2----|--2--------x--2--2-2-|
|-2-------x----------|-------------------0-|
|
| Gtr II
|--------------------|-------------------0-|
|-----------2---4----|--4-----------4----0-|
|-----------2---4----|--4-----------4----1-|
|-4---------2---4----|--4-----------4----2-|
|-4---------0---2----|--2-----------2----2-|
|-2------------------|-------------------0-|


       B5     A5
|-0--0---0------|--------------------|
|-5--4---2--0---|-0-0-(0)-0-0---0----|
|-----------4---|-1-2-(2)-4-4---4----|
|---------------|--------------------|
|---------------|--------------------|
|---------------|--------------------|
|
|                      ~~~
|---------------|--------------------|
|---------------|--------------------|
|------4-4--x-2-|-2------------------|
|-2--x-4-4--x-2-|-2------------------|
|-2--x-2-2--x-0-|-0---------0-2-4----|
|-0--x----------|------4----------0--|
|
|-0-------------|--------------------|
|-0----4-4----2-|-2------------------|
|-1----4-4----2-|-2------------------|
|-2----4-4----2-|-2------------------|
|-2----2-2----0-|-0------------------|
|-0-------------|--------------------|


    F#5     A5  B5                E5       B5     A5
    ~~~~~             ~~~~~
|-----------------|-----------------|----0----------|--------------------|
|-----------------|-----------------|----5---0--0---|-0-0-(0)-0-0---0----|
|-----------------|-----------------|--------4--1---|-1-2-(2)-4-4---4----|
|-4h6--6--6-4-2---|-2h4--4--4-6-4-2-|-2-------------|--------------------|
|---------------4-|-----------------|---------------|--------------------|
|-----------------|-----------------|---------------|--------------------|
|
|                                                          ~~~
|-----------------|-----------------|---------------|--------------------|
|-----------------|-----------------|---------------|--------------------|
|-----------2-x-4-|---4-----x-4-4---|------4-4--x-2-|-2------------------|
|---4-----x-2-x-4-|---4-----x-4-4-2-|-2--x-4-4--x-2-|-2------------------|
|---4-----x-0-x-2-|---2-----x-2-2-2-|-2--x-2-2--x-0-|-0---------0-2-4----|
|---2-----x-------|---------------0-|-0--x----------|------4----------0--|
|
|-----------------|---------------0-|-0-------------|--------------------|
|-----------2---4-|---4-------4---0-|-0----4-4----2-|-2------------------|
|-----------2---4-|---4-------4---1-|-1----4-4----2-|-2------------------|
|---4-------2---4-|---4-------4---2-|-2----4-4----2-|-2------------------|
|---4-------0---2-|---2-------2---2-|-2----2-2----0-|-0------------------|
|---2-------------|---------------0-|-0-------------|--------------------|


  F#5            A5     B5                                   B5         E5
|------------------------------|--------9----------------------9----------|
|-10--------(10)-10-10---9-----|--(9)--------9----9------(9)--------9-----|
|-12b14=====(12)-12-12r-11b13==|=(11)-(11)-(11)r-11b13==(11)-(11)-(11)r---|
|------------------------------|------------------------------------------|
|------------------------------|------------------------------------------|
|------------------------------|------------------------------------------|
|
|------------------------------|------------------------------------------|
|------------------------------|------------------------------------------|
|-----------------2--x---4-----|---4----------------------x----4----4-----|
|--4----------x---2--x---4-----|---4----------------------x----4----4---2-|
|--4----------x---0--x---2-----|---2----------------------x----2----2---2-|
|--2----------x----------------|----------------------------------------0-|
|
|------------------------------|----------------------------------------0-|
|-----------------2------4-----|---4---------------------------4--------0-|
|-----------------2------4-----|---4---------------------------4--------1-|
|--4--------------2------4-----|---4---------------------------4--------2-|
|--4--------------0------2-----|---2---------------------------2--------2-|
|--2---------------------------|----------------------------------------0-|


                    B5              A5
                                    ~~~~~~~~
|-------------------------------------|-------------------------|
|-14p12----14p12----------------------|-------------------------|
|-------13-------13-13p11-11p9----9-9-|-(9)-11-9---------9------|
|------------------------------11-----|----------11-(11)---11---|
|-------------------------------------|-------------------------|
|-------------------------------------|-------------------------|
|
|                                              ~
|-------------------------------------|-------------------------|
|-------------------------------------|-------------------------|
|--------------------4-----4------x-2-|--2----------------------|
|--2-----------x-----4-----4------x-2-|--2----------------------|
|--2-----------x-----2-----2------x-0-|--0------------0--2--4---|
|--0-----------x----------------------|--------4--------------0-|
|
|--0----------------------------------|-------------------------|
|--0-----------------4-----4--------2-|--2----------------------|
|--1-----------------4-----4--------2-|--2----------------------|
|--2-----------------4-----4--------2-|--2----------------------|
|--2-----------------2-----2--------0-|--0----------------------|
|--0----------------------------------|-------------------------|


  F#5       A5  B5                        E5
|-----------------|-------------------------|
|-----5---5-5---5-|-(5)-7-(7)-9-(9)-7-(7)---|
|-----4---4-4---4-|-(4)-6-(6)-9-(9)-6-(6)---|
|-/6----6-----6---|-------------------------|
|-----------------|-------------------------|
|-----------------|-------------------------|
|
|-----------------|-------------------------|
|-----------------|-------------------------|
|-----------2-x-4-|--4-----------x--4--4----|
|--4------x-2-x-4-|--4-----------x--4--4--2-|
|--4------x-0-x-2-|--2-----------x--2--2--2-|
|--2------x-------|-----------------------0-|
|
|-----------------|-----------------------0-|
|-----------2---4-|--4--------------4-----0-|
|-----------2---4-|--4--------------4-----1-|
|--4--------2---4-|--4--------------4-----2-|
|--4--------0---2-|--2--------------2-----2-|
|--2--------------|-----------------------0-|


         B5       A5
|-0--(0)-0-0--(0)-0-|-0-0-(0)-0-0---0-----|
|-5--(5)-5-5--(5)-5-|-5-7-(7)-9-9---9----|
|-4--(4)-4-4--(4)-4-|-4-6-(6)-9-9---9----|
|-------------------|---------------------|
|-------------------|---------------------|
|-------------------|---------------------|
|
|                          ~~~
|-------------------|---------------------|
|-------------------|---------------------|
|--------4-4---x--2-|-2-------------------|
|-2---x--4-4---x--2-|-2-------------------|
|-2---x--2-2---x--0-|-0-------------------|
|-0---x-------------|------4----5-4-2--0--|
|
|-0-----------------|---------------------|
|-0------4-4------2-|-2-------------------|
|-1------4-4------2-|-2-------------------|
|-2------4-4------2-|-2-------------------|
|-2------2-2------0-|-0-------------------|
|-0-----------------|---------------------|


   Pre-Chorus
    E    F#5
            PM--------------------|
||--0-------------|------------------||
||o-0-------------|-----------------o||
||--1-------------|------------------||
||--2----4--------|------------------||
||o-2----4--4-4-4-|-4-4-4-4-4-4-4-4-o||
||--0--0-2--2-2-2-|-2-2-2-2-2-2-2-2--||


  E    F#5        A5  A#5        B5
          PM--|                  PM------------|
|-0-------------|--------------|-----------------|--------------------|
|-0-------------|--------------|-----------------|--------------------|
|-1-------------|--------------|-----------------|--------------------|
|-2----4--------|-7---8----(8)-|-----------------|--------------------|
|-2----4--4-4-4-|-7---8----(8)-|-9-9-9-9-9-9-9-9-|-9-9-9-9-9-(9)------|
|-0--0-2--2-2-2-|-5---6----(6)-|-7-7-7-7-7-7-7-7-|-7-7-7-7-7-(7)-7---|


 Synthesizer Chorus
  Gtr IV
|-------------|---------------|---------------|
|-------------|-------9--9-7--|---------------|
|---9---8---6-|-------9--9-9--|-----9---8---6-|
|---9---9---9-|---------------|-----9---9---9-|
|-------------|---------------|---------------|
|-0-----------|-(0)-----------|-(0)-----------|


|---------------|---------------|---------------|
|-------9--9-7--|---------------|-------9--9-7--|
|-------9--9-9--|-----9---8---6-|-------9--9-9--|
|---------------|-----9---9---9-|---------------|
|---------------|---------------|---------------|
|-(0)-----------|-(0)-----------|-(0)-----------|


  C#5     B5C#D5
  Gtr I
|---------------|-----------------------|
|---------------|-----------------------|
|---------------|-----------------------|
|-6--6--6-4S6-7-|-(7)--7----------------|
|-4--4--4-2S4-5-|-(5)--5---5--5---------|
|---------------|-----------------------|
|
| Gtr II
|---------------|-----------------------|
|-------------7-|-(7)--7---7--7---------|
|-6--6--6-4S6-7-|-(7)--7---7--7---------|
|-6--6--6-4S6-7-|-(7)--7---7--7---------|
|-4--4--4-2S4-5-|-(5)--5---5--5---------|
|---------------|-----------------------|
|
| Gtr III
|---------------|-----------------------|
|---------------|------------15b17r(15)-|
|---------------|-----------------------|
|---------------|-----------------------|
|---------------|-----------------------|
|---------------|-----------------------|


 Guitar Solo 3
  E           A              F#m                        B5      C#B5
  Gtr III
                  ~~~~                                   ~~~~~~~
|----------------------12----------|---------------------------------------|
|-(15)b17-------(15)------15p12-11-|-12p=11--------------------------------|
|----------------------------------|--------14p12-14b16-12-(12)------------|
|----------------------------------|------------------------------14-12-14-|
|----------------------------------|---------------------------------------|
|----------------------------------|---------------------------------------|
|
| Gtr I
|   PM------|        PM|                     PM---|
|----------------------------------|---------------------------------------|
|----------------------------------|---------------------------------------|
|----------------------------------|---------------------------------------|
|-------------2--------------------|---------------------4------6--4-------|
|-------------0---------------4----|-(4)-----------0-----2------4--2-------|
|---0-----2-4--------4--0-----2----|-(2)-----4-----------------------------|
|
| Gtr II
|----------------------------------|---------------------------------------|
|-------------2--------------------|---------------------------------------|
|---1---------2---------------2----|-(2)-----------------4------6--4-------|
|---2---------2---------------4----|-(4)-----------------4------6--4-------|
|---2---------0---------------4----|-(4)-----------------2------4--2-------|
|---0-------------------------2----|-(2)-----------------------------------|


  E              A                      F#m
|-----------------------------------------|
|-----------------------------------------|
|-12b14----------[12]b14----------12b14---|
|-------14-12-14---------14-12-14---------|
|-----------------------------------------|
|-----------------------------------------|
|
|  PM---------|                 PM|
|-----------------------------------------|
|-----------------------------------------|
|-----------------------------------------|
|------------------2----------------------|
|------------------0--------------------4-|
|--0-----2-----4----------------4--0----2-|
|
|-----------------------------------------|
|------------------2----------------------|
|--1---------------2--------------------2-|
|--2---------------2--------------------4-|
|--2---------------0--------------------4-|
|--0------------------------------------2-|


                     B5          C#5   B5
   PM-------------|         ~~~~~
|-------------------------------------------|
|-------------------------------------------|
|-------------------------------------------|
|-14--13-12---------------------------------|
|-----------14-13-12-10h12-10b12------------|
|--------------------------------12-10-12--|
|
|         PM---|
|-------------------------------------------|
|-------------------------------------------|
|-------------------------------------------|
|---------------------4-----------6-----4---|
|-(4)-----------0-----2-----------4-----2---|
|-(2)-----4---------------------------------|
|
|-------------------------------------------|
|-------------------------------------------|
|-(2)-----------------4-----------6-----4---|
|-(4)-----------------4-----------6-----4---|
|-(4)-----------------2-----------4-----2---|
|-(2)---------------------------------------|


  E           A               F#m                  B5        C#5  B5
  Gtr III
|-4p0-0-5p0-0-7p0-0-9p0-0-7p0-9p0-|-10p=0-9p0-10p0-12p0-14p0-12p0-14p0-16p0--|
|---------------------------------|------------------------------------------|
|---------------------------------|------------------------------------------|
|---------------------------------|------------------------------------------|
|---------------------------------|------------------------------------------|
|---------------------------------|------------------------------------------|
|
| Gtr I
| PM------|           PM--|               PM--|
|---------------------------------|------------------------------------------|
|---------------------------------|------------------------------------------|
|---------------------------------|------------------------------------------|
|-------------2-------------------|-----------------4---------6----4---------|
|-------------0---------------4---|-(4)--------0----2---------4----2---------|
|-0---2---4-----------4---0---2---|-(2)---4----------------------------------|
|
|---------------------------------|------------------------------------------|
|-------------2-------------------|------------------------------------------|
|-1-----------2---------------2---|-(2)-------------4---------6----4---------|
|-2-----------2---------------4---|-(4)-------------4---------6----4---------|
|-2-----------0---------------4---|-(4)-------------2---------4----2---------|
|-0---------------------------2---|-(2)--------------------------------------|


  E             A                  F#m                 B5 C#B5
                                                    ~~~~
|-17p0-0-16p0-0-17p0-0-16p0-0-17p0-19p0-|-22b24---(22)---------|
|---------------------------------------|----------------------|
|---------------------------------------|----------------------|
|---------------------------------------|----------------------|
|---------------------------------------|----------------------|
|---------------------------------------|----------------------|
|
|  PM-------|             PM--|                 PM|
|---------------------------------------|----------------------|
|---------------------------------------|----------------------|
|---------------------------------------|----------------------|
|----------------2----------------------|--------------4--6-4--|
|----------------0------------------4---|-(4)-------0--2--4-2--|
|--0---2----4-------------4----0----2---|-(2)---4--------------|
|
|---------------------------------------|----------------------|
|----------------2----------------------|----------------------|
|--1-------------2------------------2---|-(2)----------4--6-4--|
|--2-------------2------------------4---|-(4)----------4--6-4--|
|--2-------------0------------------4---|-(4)----------2--4-2--|
|--0--------------------------------2---|-(2)------------------|


   Instrumental Out-Chorus
    E     A      F#m         B5 C#B5
    Gtrs I, III
    PM--|    PM|         PM|      ~
                                      3x
||-----------------|------------------||
||o----------------|-----------------o||
||-----------------|------------------||
||--------2--------|---------4--6-----||
||o-------0------4-|-(4)---0-2--4-2--o||
||--0-2-4----4-0-2-|-(2)-4------------||
|
|   Gtr II
|                                     3x
||-----------------|------------------||
||o-------2--------|-----------------o||
||--1-----2------2-|-(2)-----4--6-4---||
||--2-----2------4-|-(4)-----4--6-4---||
||o-2-----0------4-|-(4)-----2--4-2--o||
||--0------------2-|-(2)--------------||


  H.=H
  E     A      F#m         B5 C#B5
  Gtr III
  PM--|    PM|         PM|      ~
|----------------|-----------------|
|----------------|-----------------|
|----------------|-----------------|
|-------2--------|---------4--6----|
|-------0------4-|-(4)---0-2--4-2--|
|-0-2-4----4-0-2-|-(2)-4-----------|
|
| Gtrs I, II
|----------------|-----------------|
|-------2--------|-----------------|
|-1-----2------2-|-(2)-----4--6-4--|
|-2-----2------4-|-(4)-----4--6-4--|
|-2-----0------4-|-(4)-----2--4-2--|
|-0------------2-|-(2)-------------|


 Outro
  Free Time Q=110
  E
                    ~~~~
|-0-------------|-------------------------------------------|
|-0------14b17--|-(14)----12-15-12-11-14-11-10-13-10-9-12-9-|
|-1-------------|-------------------------------------------|
|-2-------------|-------------------------------------------|
|-2-------------|-------------------------------------------|
|-0-------------|-------------------------------------------|
|
|-0-------------|--(0)--------------------------------------|
|-0-------------|--(0)--------------------------------------|
|-1-------------|--(1)--------------------------------------|
|-2-------------|--(2)--------------------------------------|
|-2-------------|--(2)--------------------------------------|
|-0-------------|--(0)--------------------------------------|


                       ~~~
|--------------------------|
|--8--11-8-7--[4]b5---(4)--|
|--------------------------|
|--------------------------|
|--------------------------|
|--------------------------|
|
|-(0)----------------------|
|-(0)----------------------|
|-(1)----------------------|
|-(2)----------------------|
|-(2)----------------------|
|-(0)----------------------|


                      E
   ~~~
|------------|--------0----*|
|-(4)--------|--------0----*|
|------------|--------1----*|
|------------|--------2----*|
|------------|--------2----*|
|------------|--------0----*|
|
|-(0)--------|-(0)----0----*|
|-(0)--------|-(0)----0----*|
|-(1)--------|-(1)----1----*|
|-(2)--------|-(2)----2----*|
|-(2)--------|-(2)----2----*|
|-(0)--------|-(0)----0----*|


Текст, аккорды и табулатура для песни "I Believe In A Thing Called Love (ver 12)", исполняет "Darkness".
Используемые в песне аккорды можно найти в разделе Как брать аккорды. Аккорды для шестиструнной гитары. Другие песни можно найти на нашем сайте, воспользовавшись алфавитным указателем вверху страницы.


 
Ошибка в тексте? Выделите ошибку и нажмите Ctrl+Enter