b=bend
sr=slow release
btsr=bend then slow release

1st Solo

E|------9---12---12---12------16b--------------------------
B|-----12b----12b--12b--12sr------17---------------15btsr--
G|-----------------------------------16--------------------
D|--------------------------------------18b-18-14----------
A|---------------------------------------------------------
E|---------------------------------------------------------

2nd Solo

E|-----0--0-0-0-0---7--7-----------------------------------
B|-----5---5-5-5--7b-7b-7b--5h7--4-5-2-0-------------------
G|---------------------------------------1-2-4--4-4--------
D|---------------------------------------------------------
A|---------------------------------------------------------
E|---------------------------------------------------------

E|--------------------------------------0--------0---------------
B|----------------------------------------0--3s5---0-------------
G|----------------------------------------------------1-2-4-4-4--
D|-----4s6-6-6-4-2---2s4-4-4-6-4-2-------------------------------
A|-----------------4---------------4-----------------------------
E|---------------------------------------------------------------

E|--------------------9----9------9p7----------------------------
B|-----10--10--10--9----9----9--------9p7-9p7--------------------
G|-----12b-12b-12b-11----11---11--------------11p9-11p9-----9----
D|-------------------------------------------------------11------
A|---------------------------------------------------------------
E|---------------------------------------------------------------

thats all i got for now, i will be back


Текст, аккорды и табулатура для песни "I Believe In A Thing Called Love", исполняет "Darkness".
Используемые в песне аккорды можно найти в разделе Как брать аккорды. Аккорды для шестиструнной гитары. Другие песни можно найти на нашем сайте, воспользовавшись алфавитным указателем вверху страницы.


 
Ошибка в тексте? Выделите ошибку и нажмите Ctrl+Enter