tuning low to high e, a, d, g

intro/verse 1
|--------------------------------------|
|--------------------------------------|
|----0-2-2--2-2-0----2-2-0-0---0-2-4---| x2
|-2---------------0----------4-------0-|

|--------------------------------------|
|--------------------------------------|
|----0-2-2--2-2-0----2-2-0-0---0-------|
|-2---------------0----------4---4-2-0-|

bridge
|-----------------------------------|
|-----------------------------------|
|-----------------------------------| x2
|-2-0-1-2-2-2-2-2-2-2-2-2-2-2-2-2-2-|

|-----------------------------------------------------|
|-----------------------------------------------------|
|-------------0-0-1-1-2-2-2-2-2-2-2-2-2-2-2-2-2-2-2-2-|
|-2-0-1-2-2-0-----------------------------------------|

chorus
|----------------------------|
|----------------------------|
|-------0-----------0-2--4-2-| x3
|-0-2-4----4-2-2--4----------|

|-------------|
|-------------|
|-2-2-------0-|
|-----x-2-0---|

backing for solo 1 same as intro/verse 1

verse 2
|--------------------------------------------------------|
|--------------------------------------------------------|
|-----------0-0-2-2-2-2-2-2-2-2----2-2--0-0----0-2-4-----|
|-2-2-2-2-2---------------------0------------4-------0-2-|

|------------------------------------------------------|
|------------------------------------------------------|
|-----------0-0-2-2-2-2-2-2-2-2----2-2--0-0----0-------|
|-2-2-2-2-2---------------------0------------4---4-2-0-|

then bridge is played again followed by chorus

backing for solo 2 is same as intro/verse 1

bridge is played again

bit before solo 3
|-------------|
|-------------|
|-2-2-------0-|
|-----x-2-0---|

backing for solo 3 is same as chorus

thats all of it i think, any comments or things u wanna ask email me
[email protected]


Текст, аккорды и табулатура для песни "I Believe In A Thing Called Love", исполняет "Darkness".
Используемые в песне аккорды можно найти в разделе Как брать аккорды. Аккорды для шестиструнной гитары. Другие песни можно найти на нашем сайте, воспользовавшись алфавитным указателем вверху страницы.


 
Ошибка в тексте? Выделите ошибку и нажмите Ctrl+Enter