Intro/verse
G|---------------------------------------------|
D|---------------------------------------------|
A|---2-2--4-4---4-4-2----4-4--2-2---0-2-4------|
E|-2------------------2-----------4-------0----|

pre-chorus            
G|--------------------------------------------|
D|--------------------------------------------|
A|-----------0-1---0-1-3-3-3-3-4-4-4-4-5-5-5-5|
E|-1-2-3---2----------------------------------|

chorus
G|----------------------------|
D|----------------------------|
A|---------------------2-4-2--|
E|-0-2-4-5--4-2-0--2-4--------|

chorus ending
G|---------------|
D|---------------|
A|--4-4-4-4-4-2--|
E|-------------2-|

during solos play intro

2nd verse
G|---------------------------------------------------------------|
D|---------------------------------------------------------------|
A|-----------------2-2-2-2-2-2-2-2--4-4-4-4-4-4-4-4--2---0-2-4---|
E|-2-2-2-2-2-2-2-2-------------------------------------4-------0-|

last solo and outro, play chorus



hope thats ok dudes, happy rockin'
let me know if you've got anmy corrections

Ed


Текст, аккорды и табулатура для песни "I Believe In A Thing Called Love", исполняет "Darkness".
Используемые в песне аккорды можно найти в разделе Как брать аккорды. Аккорды для шестиструнной гитары. Другие песни можно найти на нашем сайте, воспользовавшись алфавитным указателем вверху страницы.


 
Ошибка в тексте? Выделите ошибку и нажмите Ctrl+Enter