Intro and Verse

----------------------------------
----------------------------------
------2-4-4----4-----4-2----------
-4----2-4-4----4-2-2-4-2----------
-4----0-2-2----2-2-2-2-0-----0-2-4
-2---------------0-0------4-------

Pre-chourus

--------------------------------------------------
-------------------------------------4------------
-------------------------------------4-Let-ring---
-2-4----------4-------Last-time--7-8-2------------
-2-4----------4---x3-------------7-8--------------
-0-2----------2------------------5-6--------------
   |____P.M.___|

Chourus

--------------------------------------------------------
--------------------------------------------------------
--------2-------------4-6-4-----Last-time--6----4-6-7---
--------2-------------4-6-4--x3------------6----4-6-7---
--------0-------------2-4-2----------------4----2-4-5---
-0-2-4-----4-0-2-4-0------------------------------------

Outro

--------------------------------------
--------------------------------------
--------2-------------4-6-4----1------
--------2-------------4-6-4----2-Hold-
--------0-------------2-4-2----2------
-0-2-4-----4-0-2-4-0--2-4-2----0------


Sorry no solo!Its gonna take a bit more work yet.

MW


Текст, аккорды и табулатура для песни "I Believe In A Thing Called Love", исполняет "Darkness".
Используемые в песне аккорды можно найти в разделе Как брать аккорды. Аккорды для шестиструнной гитары. Другие песни можно найти на нашем сайте, воспользовавшись алфавитным указателем вверху страницы.


 
Ошибка в тексте? Выделите ошибку и нажмите Ctrl+Enter