Growing on me
Artist:The Darkness
Album:Permission to land
 This tab is 100% accurate!Tuneing from high to low is e,b,g,d,a,e

INTRO

e|-5-----5-----5---------------------0---|-------------------------------|
b|---3-----3-----3-----------3---------3-|-------------------------------|
g|-----2-----2-------------2---2---------|-------------------------------|
d|-----------------------0-------0-------|-0-0-0--3-2-1-3-2-1-0v---------|
a|---------------------4-----------4-----|-0-0-0--3-2-1-3-2-1-0v---------|
e|---------------------------------------|-0-0-0--3-2-1-3-2-1-0v------7/-|
  (    repeat this whole part x3         )   then

VERSE 1

e|-------------|------------------------|------------------------------------
b|-------------|------------------------|------------------------------------
g|-------------|------------------------|------------------------------------
d|0-0-7-7-9-9/-|0-0-7-7-9-9-------------|0-0-7-7-9-9/-7-7-7-7-7-7-7-7-7-7-7-7
a|0-0-7-7-9-9/-|0-0-7-7-9-9-7-7-5-5-5-0-|0-0-7-7-9-9/-7-7-7-7-7-7-7-7-7-7-7-7
e|0-0-5-5-7-7/-|0-0-5-5-7-7-5-5-3-3-2-0-|0-0-5-5-7-7/-5-5-5-5-5-0-5-5-0-5-5-0
  (    Repeat this x2                                                       )

BRIDGE

e|5-----5-----5---------------0----|--------|
b|--3-----3-----3-------3-------3--|--------|
g|----2-----2---------2---2--------|--------|
d|------------------0-------0------|7-7-7-7/|
a|----------------4----------------|7-7-7-7/|
e|---------------------------------|5-5-5-5/|
 ( this part x3                   )

CHORUS

e|-----------------------|-------------------------|----------------|
b|-----------------------|-------------------------|----------------|
g|-----------------------|-------------------------|----------------|
d|-----------------------|-------------------------|-3-2-1-3-2-1-0v-|
a|-4-4-4-5-5-5-7-7-7-9-9-|-4-4-4-5-5-5-7-7-7-6-6-6-|-3-2-1-3-2-1-0v-|
e|-2-2-2-3-3-3-5-5-5-7-7-|-2-2-2-3-3-3-5-5-5-4-4-4-|-3-2-1-3-2-1-0v-|
                         ( this part x2          )

VERSE 2

This is just the same as VERSE 1 and the bridge.So just play it again.

CHORUS 

This is just the same as the last CHORUS.So play it again.

BRIDGE TO SOLO

e|------------------------------------|
b|------------------------------------|
g|------------------------------------|
d|------------------------------------|
a|-12-11-11-10-10-12--12-11-11-10--12-|
e|-10-9--9--8--8--10--10--9--9--8--10-|

SOLO

e|--------------------------------------------------------------------------|
b|------------------------------------------------------------17-17b--17-15-|
g|----------------------------------15--11-12-14-12-11----------------------|
d|-------------------------------12--------------------13-14v---------------|
a|-7-5-5-7v-5-5-7-7-9-10v--11-12--------------------------------------------|
e|--------------------------------------------------------------------------|

e|----------17-16-15-14-14-11vvv/-|
b|----17-14-----------------------|
g|-16-----------------------------|
d|--------------------------------| Then slide all the way down to the CHORUS
a|--------------------------------|
e|--------------------------------|

SOLO 2

e|--------------------|-----------------------|---------------------------|
b|--------------------|-----------------------|---------------------------|
g|--------------------|-----------------------|---------------------------|
d|--------------------|--------------12v-12vv-|--14--12---14b-15-15-16-16-|
a|-5vvvvvvvvvvvvvvvvv-|-7-5-7-5-7-14----------|---------------------------|
e|--------------------|-----------------------|---------------------------|

e|-------------------------------|-------------------|--------------------|
b|-------------------------------|--17b19---17b19vvv-|--19/17----15-17-17b|
g|-11-12-14-12-11----------------|-------------------|--------16----------|
d|----------------14b-16-14vvvvv-|-------------------|--------------------|
a|-------------------------------|-------------------|--------------------|
e|-------------------------------|-------------------|--------------------|

e|-------------|-17b19vvvvvvvvvvv--17-----15--14-15-14|12vvvvvvvv------12-|
b|-19-17-15vvv-|--------------------------------------|-------------------|
g|-------------|--------------------------------------|-------------------|
d|-------------|--------------------------------------|-------------------|
a|-------------|--------------------------------------|-------------------|
e|-------------|--------------------------------------|-------------------|

b=bend
/=slide down
v=vibrato

Thats it.Hope you like it.

Brad-Larry  2004


Текст, аккорды и табулатура для песни "Growing On Me", исполняет "Darkness".
Используемые в песне аккорды можно найти в разделе Как брать аккорды. Аккорды для шестиструнной гитары. Другие песни можно найти на нашем сайте, воспользовавшись алфавитным указателем вверху страницы.


 
Ошибка в тексте? Выделите ошибку и нажмите Ctrl+Enter