The Darkness
Growing on Me
Permission to Land
By Andrew Summers
Drop D Tuning

Heres a tab for the darkness, great band, great guitar, great cat suits, what
more can i say??? im wearing mine now........... Fun song to play this, so enjoy.

Intro

E------5-----5---------------------------------------------------------------
B--------3-----3-----------------5-------------------------------------------
G-----------------------------7-----7----------------------------------------
D----------0-----0---------7------------------7-5-4-0-5-4-0------------------
A--5-----------------4--5---------------------7-5-4-0-5-4-0------------------
D---------------------------------------------7-5-4-0-5-4-0------------------
  {                 x3                 }      Then


Verse

-----------------------------------------------------------------------------
-----------------------------------------------------------------------------
-----------------------------------------------------------------------------
-0-7-9----------0-7-9-5-4-5-4-0----------------------------------------------
-0-7-9----------0-7-9-5-4-5-4-0----------------------------------------------
-0-7-9----------0-7-9-5-4-5-4-0----------------------------------------------

Back to the intro for the bridge


Chorus

-----------------------------------------------------------------------------
-----------------------------------------------------------------------------
-------7---------------------------------------------------------------------
-4-5-7-7------------------7-5-4-0-5-4-0--------------------------------------
-4-5-7-5------------------7-5-4-0-5-4-0--------------------------------------
-4-5-7--------------------7-5-4-0-5-4-0--------------------------------------
  {x3}             Then

Play Verse again and intro for bridge And then the chorus


Riff before Solo

-----------------------------------------------------------------------------
-----------------------------------------------------------------------------
-12-12-11-11-6-6-7-7---------------------------------------------------------
-x---x-x--x--x-x-x-x---------------------------------------------------------
-10-10-9--9--4-4-5-5---------------------------------------------------------
-----------------------------------------------------------------------------

Solo 1 ROCK!!!

-----------------------------------------------------------------------------
----------------------------------7-8-10-8-7-------17b-17b-17b---15-17-17b-15
-----------------------7-7-9-7-9b------------9-9br-------------16------------
-----------------------------------------------------------------------------
-5-5-0-5-5-7br-5-7br-5-------------------------------------------------------
-----------------------------------------------------------------------------


-17b-17-15-14h15p14----------------------------------------------------------
--------------------------17-------------------------------------------------
-----------------------------------------------------------------------------
-----------------------------------------------------------------------------
-----------------------------------------------------------------------------
-----------------------------------------------------------------------------


Play chorus again


Solo 2 RRROOOCKK!!!!

---------------------------------------------------2-2-2-0h2p0--0------------
--------------------------------------------------------------3---3-2h02h0---
-----------------------------------------------------------------------------
----------------12-11-12p11-9-9----12b-12b-12b-12b---------------------------
-5-7b-5-7-7brbr-----------------12-------------------------------------------
-----------------------------------------------------------------------------


-----------------------------------------------------------------------------
--------------------------------------------------------15-14-15p14-12-12----
--2h02h0------------------------------------------------------------------14-
---------4p2p0------------12-{hold}-14br-12-14-14br-14b----------------------
-----------------------------------------------------------------------------
-----------------------------------------------------------------------------


----------------------------17-----17-----17-----17--------------------------
-15b-15b-15b-15b--------17b----17b----17b----17b-----------------------------
-----------------------------------------------------------------------------
-----------------------------------------------------------------------------
-----------------------------------------------------------------------------
-----------------------------------------------------------------------------


thats basically it folks, if you wanna do like Justin does live well then just
solo round the 17t fret area on the E string, incase you cant be f####d heres
what i play to polish the song off...........


---14-15-14h15p14-17p14-19p14-17p14-17p14-15p14-15p14------------------------
------------------------------------------------------17p15p14-17b{holdbend}-
-----------------------------------------------------------------------------
-----------------------------------------------------------------------------
-----------------------------------------------------------------------------
-----------------------------------------------------------------------------


And end on 

-----------------------------
-----------------------------
-7---------------------------
-7---------------------------
-5---------------------------
-----------------------------

Or you could just ignore the improv bit of mine and add ur own, improvise PPL!!!! Rock on


Текст, аккорды и табулатура для песни "Growing On Me", исполняет "Darkness".
Используемые в песне аккорды можно найти в разделе Как брать аккорды. Аккорды для шестиструнной гитары. Другие песни можно найти на нашем сайте, воспользовавшись алфавитным указателем вверху страницы.


 
Ошибка в тексте? Выделите ошибку и нажмите Ctrl+Enter