----------------------------------------------------------------------------
		Get Your Hands Off my Woman - The Darkness
----------------------------------------------------------------------------

Tabbed By : Nitro (Mike Bryant)
e-mail: [email protected]

Tuning: Standard (EADG)

                     1           2
G|-------------|-----------|-----------|
D|-0-0---------|-----------|-----------|
A|-----1-1-----|-3-3---3---|-3-3---3-4-|
E|---------1-1-|-----3---1-|-----3-----|

G|-----------------------------------------|
D|-0-0-0-0-0-0-0-0-0-0-0-0-0-0-0-0---------|
A|-----------------------------------------|
E|---------------------------------3-3-1-1-|

G|-----------------------------------------------------------------|
D|-----------------------------------------------------------------|
A|-----------------------------------------------------------------|
E|-3-3-1-3-x-x-x-x-x-x-3-3-1-3-x-x-x-x-x-x-/3-15-15-15-15-15-15-15-|

G|-----------------|
D|-----------------|
A|-----------1-2-3-|
E|-0-1-2-3-4-------|

                     1           2
G|-------------|-----------|-----------|
D|-0-0---------|-----------|-----------|
A|-----1-1-----|-3-3---3---|-3-3---3-4-|
E|---------1-1-|-----3---1-|-----3-----|

G|-------------------------------------------|
D|-0-0-0-0-0-0-0-0-0-0-0-0-0-0-0-0---------0-|
A|-------------------------------------------|
E|---------------------------------3-3-1-1---|

                     1           2
G|-------------|-----------|-----------|
D|-0-0---------|-----------|-----------|
A|-----1-1-----|-3-3---3---|-3-3---3-4-|
E|---------1-1-|-----3---1-|-----3-----|

G|---------------------------------------------------|
D|---------------------------------------------------|
A|---------------------------------------------------|
E|-3-3-3-3-3-3-3-3-3-3-3-3-3-3-3-3-15-15-15-15-15-15-|

G|-----------------|
D|-----------------|
A|-----------1-2-3-|
E|-0-1-2-3-4-------|

                     1           2
G|-------------|-----------|-----------|
D|-0-0---------|-----------|-----------|
A|-----1-1-----|-3-3---3---|-3-3---3-4-|
E|---------1-1-|-----3---1-|-----3-----|

| /  slide up
|   slide down
| h  hammer-on
| p  pull-off
| ~  vibrato
| +  harmonic
| x  Mute note
============================================================================


Текст, аккорды и табулатура для песни "Get Your Hands Off Of My Woman", исполняет "Darkness".
Используемые в песне аккорды можно найти в разделе Как брать аккорды. Аккорды для шестиструнной гитары. Другие песни можно найти на нашем сайте, воспользовавшись алфавитным указателем вверху страницы.


 
Ошибка в тексте? Выделите ошибку и нажмите Ctrl+Enter